  0
SECTION
  2
HEADER
  9
$ACADVER
  1
AC1009
  9
$INSBASE
 10
0.0
 20
0.0
 30
0.0
  9
$EXTMIN
 10
5.4554247939856628
 20
2.1749999909212678
 30
0.0
  9
$EXTMAX
 10
28.7054247939856708
 20
19.4328740066693584
 30
0.0
  9
$LIMMIN
 10
0.0
 20
0.0
  9
$LIMMAX
 10
12.0
 20
9.0
  9
$ORTHOMODE
 70
     0
  9
$REGENMODE
 70
     1
  9
$FILLMODE
 70
     1
  9
$QTEXTMODE
 70
     0
  9
$MIRRTEXT
 70
     0
  9
$DRAGMODE
 70
     2
  9
$LTSCALE
 40
1.0
  9
$OSMODE
 70
   679
  9
$ATTMODE
 70
     1
  9
$TEXTSIZE
 40
0.2
  9
$TRACEWID
 40
0.05
  9
$TEXTSTYLE
  7
STANDARD
  9
$CLAYER
  8
0
  9
$CELTYPE
  6
BYLAYER
  9
$CECOLOR
 62
   256
  9
$DIMSCALE
 40
1.0
  9
$DIMASZ
 40
0.18
  9
$DIMEXO
 40
0.0625
  9
$DIMDLI
 40
0.38
  9
$DIMRND
 40
0.0
  9
$DIMDLE
 40
0.0
  9
$DIMEXE
 40
0.18
  9
$DIMTP
 40
0.0
  9
$DIMTM
 40
0.0
  9
$DIMTXT
 40
0.18
  9
$DIMCEN
 40
0.09
  9
$DIMTSZ
 40
0.0
  9
$DIMTOL
 70
     0
  9
$DIMLIM
 70
     0
  9
$DIMTIH
 70
     1
  9
$DIMTOH
 70
     1
  9
$DIMSE1
 70
     0
  9
$DIMSE2
 70
     0
  9
$DIMTAD
 70
     0
  9
$DIMZIN
 70
     0
  9
$DIMBLK
  1

  9
$DIMASO
 70
     1
  9
$DIMSHO
 70
     1
  9
$DIMPOST
  1

  9
$DIMAPOST
  1

  9
$DIMALT
 70
     0
  9
$DIMALTD
 70
     2
  9
$DIMALTF
 40
25.3999999999999986
  9
$DIMLFAC
 40
1.0
  9
$DIMTOFL
 70
     0
  9
$DIMTVP
 40
0.0
  9
$DIMTIX
 70
     0
  9
$DIMSOXD
 70
     0
  9
$DIMSAH
 70
     0
  9
$DIMBLK1
  1

  9
$DIMBLK2
  1

  9
$DIMSTYLE
  2
STANDARD
  9
$DIMCLRD
 70
     0
  9
$DIMCLRE
 70
     0
  9
$DIMCLRT
 70
     0
  9
$DIMTFAC
 40
1.0
  9
$DIMGAP
 40
0.09
  9
$LUNITS
 70
     2
  9
$LUPREC
 70
     4
  9
$SKETCHINC
 40
0.1
  9
$FILLETRAD
 40
0.0
  9
$AUNITS
 70
     0
  9
$AUPREC
 70
     0
  9
$MENU
  1
.
  9
$ELEVATION
 40
0.0
  9
$PELEVATION
 40
0.0
  9
$THICKNESS
 40
0.0
  9
$LIMCHECK
 70
     0
  9
$BLIPMODE
 70
     0
  9
$CHAMFERA
 40
0.0
  9
$CHAMFERB
 40
0.0
  9
$SKPOLY
 70
     0
  9
$TDCREATE
 40
2458912.6128703709691763
  9
$TDUPDATE
 40
2458912.6140509261749685
  9
$TDINDWG
 40
0.0011805556
  9
$TDUSRTIMER
 40
0.0011805556
  9
$USRTIMER
 70
     1
  9
$ANGBASE
 50
0.0
  9
$ANGDIR
 70
     0
  9
$PDMODE
 70
     0
  9
$PDSIZE
 40
0.0
  9
$PLINEWID
 40
0.0
  9
$COORDS
 70
     1
  9
$SPLFRAME
 70
     0
  9
$SPLINETYPE
 70
     6
  9
$SPLINESEGS
 70
     8
  9
$ATTDIA
 70
     1
  9
$ATTREQ
 70
     1
  9
$HANDLING
 70
     1
  9
$HANDSEED
  5
1F6
  9
$SURFTAB1
 70
     6
  9
$SURFTAB2
 70
     6
  9
$SURFTYPE
 70
     6
  9
$SURFU
 70
     6
  9
$SURFV
 70
     6
  9
$UCSNAME
  2

  9
$UCSORG
 10
0.0
 20
0.0
 30
0.0
  9
$UCSXDIR
 10
1.0
 20
0.0
 30
0.0
  9
$UCSYDIR
 10
0.0
 20
1.0
 30
0.0
  9
$PUCSNAME
  2

  9
$PUCSORG
 10
0.0
 20
0.0
 30
0.0
  9
$PUCSXDIR
 10
1.0
 20
0.0
 30
0.0
  9
$PUCSYDIR
 10
0.0
 20
1.0
 30
0.0
  9
$USERI1
 70
     0
  9
$USERI2
 70
     0
  9
$USERI3
 70
     0
  9
$USERI4
 70
     0
  9
$USERI5
 70
     0
  9
$USERR1
 40
0.0
  9
$USERR2
 40
0.0
  9
$USERR3
 40
0.0
  9
$USERR4
 40
0.0
  9
$USERR5
 40
0.0
  9
$WORLDVIEW
 70
     1
  9
$SHADEDGE
 70
     3
  9
$SHADEDIF
 70
    70
  9
$TILEMODE
 70
     1
  9
$MAXACTVP
 70
    64
  9
$PLIMCHECK
 70
     0
  9
$PEXTMIN
 10
-3.7545443934325631
 20
-0.4964999892767961
 30
0.0
  9
$PEXTMAX
 10
29.4849338230908486
 20
17.5948313108135892
 30
0.0
  9
$PLIMMIN
 10
0.0
 20
0.0
  9
$PLIMMAX
 10
12.0
 20
9.0
  9
$UNITMODE
 70
     0
  9
$VISRETAIN
 70
     1
  9
$PLINEGEN
 70
     0
  9
$PSLTSCALE
 70
     1
  0
ENDSEC
  0
SECTION
  2
TABLES
  0
TABLE
  2
VPORT
 70
     1
  0
VPORT
  2
*ACTIVE
 70
     0
 10
0.0
 20
0.0
 11
1.0
 21
1.0
 12
9.0711681631653711
 22
7.4032451896027283
 13
0.0
 23
0.0
 14
0.5
 24
0.5
 15
0.5
 25
0.5
 16
0.0
 26
0.0
 36
1.0
 17
0.0
 27
0.0
 37
0.0
 40
36.8639999622145211
 41
2.0025673940949931
 42
50.0
 43
0.0
 44
0.0
 50
0.0
 51
0.0
 71
     0
 72
  1000
 73
     1
 74
     3
 75
     0
 76
     0
 77
     0
 78
     0
  0
ENDTAB
  0
TABLE
  2
LTYPE
 70
     1
  0
LTYPE
  2
CONTINUOUS
 70
     0
  3
Solid line
 72
    65
 73
     0
 40
0.0
  0
ENDTAB
  0
TABLE
  2
LAYER
 70
     2
  0
LAYER
  2
0
 70
     0
 62
     7
  6
CONTINUOUS
  0
LAYER
  2
DEFPOINTS
 70
     0
 62
     7
  6
CONTINUOUS
  0
ENDTAB
  0
TABLE
  2
STYLE
 70
     4
  0
STYLE
  2
STANDARD
 70
     0
 40
0.0
 41
1.0
 50
0.0
 71
     0
 42
0.2
  3
txt
  4

  0
STYLE
  2
ANNOTATIVE
 70
     0
 40
0.0
 41
1.0
 50
0.0
 71
     0
 42
0.2
  3
txt
  4

  0
STYLE
  2
MMISOCP
 70
     0
 40
0.0
 41
1.0
 50
0.0
 71
     0
 42
2.5
  3
isocp.shx
  4

  0
STYLE
  2
SX
 70
     0
 40
1.0
 41
1.0
 50
0.0
 71
     0
 42
1.0
  3
simplex.shx
  4

  0
ENDTAB
  0
TABLE
  2
VIEW
 70
     2
  0
ENDTAB
  0
TABLE
  2
UCS
 70
     0
  0
ENDTAB
  0
TABLE
  2
APPID
 70
     8
  0
APPID
  2
ACAD
 70
     0
  0
APPID
  2
ACADANNOTATIVE
 70
     0
  0
APPID
  2
ACAD_NAV_VCDISPLAY
 70
     0
  0
APPID
  2
ACAD_PSEXT
 70
     0
  0
APPID
  2
ACAD_DSTYLE_DIMJAG
 70
     0
  0
APPID
  2
ACAD_DSTYLE_DIMBREAK
 70
     0
  0
APPID
  2
ACAD_DSTYLE_DIMTALN
 70
     0
  0
APPID
  2
ACAD_MLEADERVER
 70
     0
  0
ENDTAB
  0
TABLE
  2
DIMSTYLE
 70
     8
  0
DIMSTYLE
  2
STANDARD
 70
     0
  3

  4

  5

  6

  7

 40
1.0
 41
0.18
 42
0.0625
 43
0.38
 44
0.18
 45
0.0
 46
0.0
 47
0.0
 48
0.0
140
0.18
141
0.09
142
0.0
143
25.3999999999999986
144
1.0
145
0.0
146
1.0
147
0.09
 71
     0
 72
     0
 73
     1
 74
     1
 75
     0
 76
     0
 77
     0
 78
     0
170
     0
171
     2
172
     0
173
     0
174
     0
175
     0
176
     0
177
     0
178
     0
  0
DIMSTYLE
  2
ANNOTATIVE
 70
     0
  3

  4

  5

  6

  7

 40
1.0
 41
0.18
 42
0.0625
 43
0.38
 44
0.18
 45
0.0
 46
0.0
 47
0.0
 48
0.0
140
0.18
141
0.09
142
0.0
143
25.3999999999999986
144
1.0
145
0.0
146
1.0
147
0.09
 71
     0
 72
     0
 73
     1
 74
     1
 75
     0
 76
     0
 77
     0
 78
     0
170
     0
171
     2
172
     0
173
     0
174
     0
175
     0
176
     0
177
     0
178
     0
  0
DIMSTYLE
  2
ISO-25
 70
     0
  3

  4

  5

  6

  7

 40
1.0
 41
2.5
 42
0.625
 43
3.75
 44
1.25
 45
0.0
 46
0.0
 47
0.0
 48
0.0
140
2.5
141
2.5
142
0.0
143
0.03937007874016
144
1.0
145
0.0
146
1.0
147
0.625
 71
     0
 72
     0
 73
     0
 74
     0
 75
     0
 76
     0
 77
     1
 78
     8
170
     0
171
     3
172
     1
173
     0
174
     0
175
     0
176
     0
177
     0
178
     0
  0
DIMSTYLE
  2
MM_KBT
 70
     0
  3

  4

  5

  6
SMALL
  7
CLOSEDBLANK
 40
0.0
 41
3.5
 42
0.0
 43
20.0
 44
2.0
 45
0.0
 46
0.0
 47
0.0
 48
0.0
140
3.5
141
0.0
142
0.0
143
0.0394
144
1.0
145
0.0
146
1.0
147
0.625
 71
     0
 72
     0
 73
     0
 74
     0
 75
     0
 76
     1
 77
     2
 78
     8
170
     0
171
     2
172
     1
173
     1
174
     0
175
     0
176
     0
177
     0
178
     5
  0
DIMSTYLE
  2
MMM
 70
     0
  3

  4

  5

  6

  7

 40
0.0
 41
2.5
 42
2.0
 43
10.0
 44
2.0
 45
0.0
 46
0.0
 47
0.0
 48
0.0
140
3.5
141
0.0
142
0.0
143
0.0394
144
1.0
145
0.0
146
1.0
147
0.625
 71
     0
 72
     0
 73
     0
 74
     0
 75
     0
 76
     0
 77
     1
 78
     8
170
     0
171
     2
172
     1
173
     0
174
     0
175
     0
176
     3
177
     3
178
     2
  0
DIMSTYLE
  2
AM_ISO
 70
     0
  3

  4
"
  5

  6

  7

 40
1.0
 41
2.5
 42
1.0
 43
10.0
 44
1.0
 45
0.0
 46
0.0
 47
0.1
 48
0.1
140
3.5
141
0.0
142
0.0
143
0.0393701
144
1.0
145
0.0
146
0.71
147
1.5
 71
     0
 72
     0
 73
     0
 74
     0
 75
     0
 76
     0
 77
     1
 78
     8
170
     0
171
     2
172
     1
173
     0
174
     0
175
     0
176
   256
177
   256
178
     2
  0
DIMSTYLE
  2
KINDRED
 70
     0
  3

  4

  5

  6

  7

 40
2.0
 41
0.25
 42
0.25
 43
0.375
 44
0.25
 45
0.0
 46
0.0
 47
0.0
 48
0.0
140
1.0
141
0.25
142
0.0
143
25.3999999999999986
144
1.0
145
0.0
146
1.0
147
0.25
 71
     0
 72
     0
 73
     1
 74
     1
 75
     0
 76
     0
 77
     0
 78
     0
170
     0
171
     2
172
     0
173
     0
174
     0
175
     0
176
     1
177
     1
178
     1
  0
DIMSTYLE
  2
KINDRED$0
 70
     0
  3

  4

  5

  6

  7

 40
2.0
 41
0.25
 42
0.25
 43
0.375
 44
0.25
 45
0.0
 46
0.0
 47
0.0
 48
0.0
140
1.0
141
0.25
142
0.0
143
25.3999999999999986
144
1.0
145
0.0
146
1.0
147
0.25
 71
     0
 72
     0
 73
     1
 74
     1
 75
     0
 76
     0
 77
     0
 78
     0
170
     0
171
     2
172
     0
173
     0
174
     0
175
     0
176
     1
177
     1
178
     1
  0
ENDTAB
  0
ENDSEC
  0
SECTION
  2
BLOCKS
  0
BLOCK
  8
0
  2
$MODEL_SPACE
 70
     0
 10
0.0
 20
0.0
 30
0.0
  3
$MODEL_SPACE
  1

  0
ENDBLK
  5
72
  8
0
  0
BLOCK
 67
     1
  8
0
  2
$PAPER_SPACE
 70
     0
 10
0.0
 20
0.0
 30
0.0
  3
$PAPER_SPACE
  1

  0
ENDBLK
  5
6E
 67
     1
  8
0
  0
BLOCK
  8
0
  2
_CLOSEDBLANK
 70
     0
 10
0.0
 20
0.0
 30
0.0
  3
_CLOSEDBLANK
  1

  0
LINE
  5
7E
  8
0
  6
BYBLOCK
 62
     0
 10
-1.0
 20
0.1666666666666666
 30
0.0
 11
0.0
 21
0.0
 31
0.0
  0
LINE
  5
7F
  8
0
  6
BYBLOCK
 62
     0
 10
0.0
 20
0.0
 30
0.0
 11
-1.0
 21
-0.1666666666666666
 31
0.0
  0
LINE
  5
80
  8
0
  6
BYBLOCK
 62
     0
 10
-1.0
 20
0.1666666666666666
 30
0.0
 11
-1.0
 21
-0.1666666666666666
 31
0.0
  0
ENDBLK
  5
81
  8
0
  0
BLOCK
  8
0
  2
_SMALL
 70
     0
 10
0.0
 20
0.0
 30
0.0
  3
_SMALL
  1

  0
CIRCLE
  5
84
  8
0
 62
     0
 10
0.0
 20
0.0
 30
0.0
 40
0.25
  0
ENDBLK
  5
85
  8
0
  0
BLOCK
  8
0
  2
*D3
 70
     1
 10
0.0
 20
0.0
 30
0.0
  3
*D3
  1

  0
LINE
  5
88
  8
0
 62
     1
 10
188.375375535827402
 20
304.4905530247830825
 30
0.0
 11
189.1573358630390089
 21
304.4905530247830825
 31
0.0
  0
LINE
  5
89
  8
0
 62
     1
 10
188.7284237633421071
 20
287.2326790090351096
 30
0.0
 11
188.6573358630390942
 21
287.2326790090351096
 31
0.0
  0
LINE
  5
8A
  8
0
 62
     1
 10
188.9073358630390089
 20
304.2405530247830825
 30
0.0
 11
188.9073358630390089
 21
294.6876941358386262
 31
0.0
  0
LINE
  5
8B
  8
0
 62
     1
 10
188.9073358630390089
 20
287.4826790090351096
 30
0.0
 11
188.9073358630390089
 21
292.6638846120291078
 31
0.0
  0
SOLID
  5
8C
  8
0
 62
     1
 10
188.8656691963724086
 20
304.2405530247830825
 30
0.0
 11
188.9490025297056945
 21
304.2405530247830825
 31
0.0
 12
188.9073358630390089
 22
304.4905530247830825
 32
0.0
 13
188.9073358630390089
 23
304.4905530247830825
 33
0.0
  0
SOLID
  5
8D
  8
0
 62
     1
 10
188.8656691963724086
 20
287.4826790090351096
 30
0.0
 11
188.9490025297056945
 21
287.4826790090351096
 31
0.0
 12
188.9073358630390089
 22
287.2326790090351096
 32
0.0
 13
188.9073358630390089
 23
287.2326790090351096
 33
0.0
  0
INSERT
  5
8E
  8
0
  2
*U13
 10
0.0
 20
0.0
 30
0.0
  0
POINT
  5
8F
  8
DEFPOINTS
 62
     0
 10
188.125375535827402
 20
304.4905530247830825
 30
0.0
  0
POINT
  5
90
  8
DEFPOINTS
 62
     0
 10
188.9784237633421071
 20
287.2326790090351096
 30
0.0
  0
POINT
  5
91
  8
DEFPOINTS
 62
     0
 10
188.9073358630390089
 20
287.2326790090351096
 30
0.0
  0
ENDBLK
  5
92
  8
0
  0
BLOCK
  8
0
  2
*D4
 70
     1
 10
0.0
 20
0.0
 30
0.0
  3
*D4
  1

  0
LINE
  5
95
  8
0
 62
     1
 10
185.568047414749401
 20
290.5787829977488741
 30
0.0
 11
194.0263807480828007
 21
290.5787829977488741
 31
0.0
  0
LINE
  5
96
  8
0
 62
     1
 10
208.318047414749401
 20
290.5787829977488741
 30
0.0
 11
199.8597140814160866
 21
290.5787829977488741
 31
0.0
  0
SOLID
  5
97
  8
0
 62
     1
 10
185.568047414749401
 20
290.6204496644156166
 30
0.0
 11
185.568047414749401
 21
290.5371163310821885
 31
0.0
 12
185.318047414749401
 22
290.5787829977488741
 32
0.0
 13
185.318047414749401
 23
290.5787829977488741
 33
0.0
  0
SOLID
  5
98
  8
0
 62
     1
 10
208.318047414749401
 20
290.6204496644156166
 30
0.0
 11
208.318047414749401
 21
290.5371163310821885
 31
0.0
 12
208.568047414749401
 22
290.5787829977488741
 32
0.0
 13
208.568047414749401
 23
290.5787829977488741
 33
0.0
  0
INSERT
  5
99
  8
0
  2
*U14
 10
0.0
 20
0.0
 30
0.0
  0
POINT
  5
9A
  8
DEFPOINTS
 62
     0
 10
185.318047414749401
 20
290.5787829977488741
 30
0.0
  0
POINT
  5
9B
  8
DEFPOINTS
 62
     0
 10
208.568047414749401
 20
290.5787829977488741
 30
0.0
  0
POINT
  5
9C
  8
DEFPOINTS
 62
     0
 10
208.568047414749401
 20
290.5787829977488741
 30
0.0
  0
ENDBLK
  5
9D
  8
0
  0
BLOCK
  8
0
  2
*D6
 70
     1
 10
0.0
 20
0.0
 30
0.0
  3
*D6
  1

  0
LINE
  5
E2
  8
0
 62
     1
 10
8.5127529150636398
 20
19.4328740066693015
 30
0.0
 11
9.2947132422752698
 21
19.4328740066693015
 31
0.0
  0
LINE
  5
E3
  8
0
 62
     1
 10
8.8658011425784018
 20
2.1749999909212678
 30
0.0
 11
8.7947132422752734
 21
2.1749999909212678
 31
0.0
  0
LINE
  5
E4
  8
0
 62
     1
 10
9.0447132422752698
 20
19.1828740066693015
 30
0.0
 11
9.0447132422752716
 21
9.6300151177248487
 31
0.0
  0
LINE
  5
E5
  8
0
 62
     1
 10
9.0447132422752734
 20
2.4249999909212692
 30
0.0
 11
9.0447132422752716
 21
7.6062055939153241
 31
0.0
  0
SOLID
  5
E6
  8
0
 62
     1
 10
9.0030465756086038
 20
19.1828740066693015
 30
0.0
 11
9.0863799089419341
 21
19.1828740066693015
 31
0.0
 12
9.0447132422752698
 22
19.4328740066693015
 32
0.0
 13
9.0447132422752698
 23
19.4328740066693015
 33
0.0
  0
SOLID
  5
E7
  8
0
 62
     1
 10
9.0030465756086073
 20
2.4249999909212692
 30
0.0
 11
9.0863799089419395
 21
2.4249999909212692
 31
0.0
 12
9.0447132422752734
 22
2.1749999909212692
 32
0.0
 13
9.0447132422752734
 23
2.1749999909212692
 33
0.0
  0
INSERT
  5
E8
  8
0
  2
*U16
 10
0.0
 20
0.0
 30
0.0
  0
POINT
  5
E9
  8
DEFPOINTS
 62
     0
 10
8.2627529150636398
 20
19.4328740066693015
 30
0.0
  0
POINT
  5
EA
  8
DEFPOINTS
 62
     0
 10
9.1158011425784018
 20
2.1749999909212692
 30
0.0
  0
POINT
  5
EB
  8
DEFPOINTS
 62
     0
 10
9.0447132422752734
 20
2.1749999909212692
 30
0.0
  0
ENDBLK
  5
CC
  8
0
  0
BLOCK
  8
0
  2
*D7
 70
     1
 10
0.0
 20
0.0
 30
0.0
  3
*D7
  1

  0
LINE
  5
EC
  8
0
 62
     1
 10
5.7054247939856628
 20
5.5211039796350319
 30
0.0
 11
14.1637581273189994
 21
5.5211039796350319
 31
0.0
  0
LINE
  5
ED
  8
0
 62
     1
 10
28.4554247939856708
 20
5.5211039796350319
 30
0.0
 11
19.9970914606523316
 21
5.5211039796350319
 31
0.0
  0
SOLID
  5
EE
  8
0
 62
     1
 10
5.7054247939856628
 20
5.5627706463016988
 30
0.0
 11
5.7054247939856628
 21
5.4794373129683649
 31
0.0
 12
5.4554247939856628
 22
5.5211039796350319
 32
0.0
 13
5.4554247939856628
 23
5.5211039796350319
 33
0.0
  0
SOLID
  5
EF
  8
0
 62
     1
 10
28.4554247939856708
 20
5.5627706463016988
 30
0.0
 11
28.4554247939856708
 21
5.4794373129683649
 31
0.0
 12
28.7054247939856708
 22
5.5211039796350319
 32
0.0
 13
28.7054247939856708
 23
5.5211039796350319
 33
0.0
  0
INSERT
  5
F0
  8
0
  2
*U17
 10
0.0
 20
0.0
 30
0.0
  0
POINT
  5
F1
  8
DEFPOINTS
 62
     0
 10
5.4554247939856628
 20
5.5211039796350319
 30
0.0
  0
POINT
  5
F2
  8
DEFPOINTS
 62
     0
 10
28.7054247939856708
 20
5.5211039796350319
 30
0.0
  0
POINT
  5
F3
  8
DEFPOINTS
 62
     0
 10
28.7054247939856708
 20
5.5211039796350319
 30
0.0
  0
ENDBLK
  5
D9
  8
0
  0
BLOCK
  8
0
  2
*D8
 70
     1
 10
0.0
 20
0.0
 30
0.0
  3
*D8
  1

  0
LINE
  5
106
  8
0
 62
     1
 10
188.375375535827402
 20
304.4905530247830825
 30
0.0
 11
189.1573358630390089
 21
304.4905530247830825
 31
0.0
  0
LINE
  5
107
  8
0
 62
     1
 10
188.7284237633421071
 20
287.2326790090351096
 30
0.0
 11
188.6573358630390942
 21
287.2326790090351096
 31
0.0
  0
LINE
  5
108
  8
0
 62
     1
 10
188.9073358630390089
 20
304.2405530247830825
 30
0.0
 11
188.9073358630390089
 21
294.6876941358386262
 31
0.0
  0
LINE
  5
109
  8
0
 62
     1
 10
188.9073358630390089
 20
287.4826790090351096
 30
0.0
 11
188.9073358630390089
 21
292.6638846120291078
 31
0.0
  0
SOLID
  5
10A
  8
0
 62
     1
 10
188.8656691963724086
 20
304.2405530247830825
 30
0.0
 11
188.9490025297056945
 21
304.2405530247830825
 31
0.0
 12
188.9073358630390089
 22
304.4905530247830825
 32
0.0
 13
188.9073358630390089
 23
304.4905530247830825
 33
0.0
  0
SOLID
  5
10B
  8
0
 62
     1
 10
188.8656691963724086
 20
287.4826790090351096
 30
0.0
 11
188.9490025297056945
 21
287.4826790090351096
 31
0.0
 12
188.9073358630390089
 22
287.2326790090351096
 32
0.0
 13
188.9073358630390089
 23
287.2326790090351096
 33
0.0
  0
INSERT
  5
10C
  8
0
  2
*U18
 10
0.0
 20
0.0
 30
0.0
  0
POINT
  5
10D
  8
DEFPOINTS
 62
     0
 10
188.125375535827402
 20
304.4905530247830825
 30
0.0
  0
POINT
  5
10E
  8
DEFPOINTS
 62
     0
 10
188.9784237633421071
 20
287.2326790090351096
 30
0.0
  0
POINT
  5
10F
  8
DEFPOINTS
 62
     0
 10
188.9073358630390089
 20
287.2326790090351096
 30
0.0
  0
ENDBLK
  5
110
  8
0
  0
BLOCK
  8
0
  2
*D9
 70
     1
 10
0.0
 20
0.0
 30
0.0
  3
*D9
  1

  0
LINE
  5
113
  8
0
 62
     1
 10
185.568047414749401
 20
290.5787829977488741
 30
0.0
 11
194.0263807480828007
 21
290.5787829977488741
 31
0.0
  0
LINE
  5
114
  8
0
 62
     1
 10
208.318047414749401
 20
290.5787829977488741
 30
0.0
 11
199.8597140814160866
 21
290.5787829977488741
 31
0.0
  0
SOLID
  5
115
  8
0
 62
     1
 10
185.568047414749401
 20
290.6204496644156166
 30
0.0
 11
185.568047414749401
 21
290.5371163310821885
 31
0.0
 12
185.318047414749401
 22
290.5787829977488741
 32
0.0
 13
185.318047414749401
 23
290.5787829977488741
 33
0.0
  0
SOLID
  5
116
  8
0
 62
     1
 10
208.318047414749401
 20
290.6204496644156166
 30
0.0
 11
208.318047414749401
 21
290.5371163310821885
 31
0.0
 12
208.568047414749401
 22
290.5787829977488741
 32
0.0
 13
208.568047414749401
 23
290.5787829977488741
 33
0.0
  0
INSERT
  5
117
  8
0
  2
*U19
 10
0.0
 20
0.0
 30
0.0
  0
POINT
  5
118
  8
DEFPOINTS
 62
     0
 10
185.318047414749401
 20
290.5787829977488741
 30
0.0
  0
POINT
  5
119
  8
DEFPOINTS
 62
     0
 10
208.568047414749401
 20
290.5787829977488741
 30
0.0
  0
POINT
  5
11A
  8
DEFPOINTS
 62
     0
 10
208.568047414749401
 20
290.5787829977488741
 30
0.0
  0
ENDBLK
  5
11B
  8
0
  0
BLOCK
  8
0
  2
*D11
 70
     1
 10
0.0
 20
0.0
 30
0.0
  3
*D11
  1

  0
LINE
  5
14E
  8
0
 62
     1
 10
9.2922619441688248
 20
17.5948313108135288
 30
0.0
 11
10.0742222713804495
 21
17.5948313108135288
 31
0.0
  0
LINE
  5
14F
  8
0
 62
     1
 10
9.6453101716835867
 20
0.3369572950654991
 30
0.0
 11
9.5742222713804583
 21
0.3369572950654991
 31
0.0
  0
LINE
  5
150
  8
0
 62
     1
 10
9.8242222713804548
 20
17.3448313108135288
 30
0.0
 11
9.8242222713804566
 21
7.7919724218690787
 31
0.0
  0
LINE
  5
151
  8
0
 62
     1
 10
9.8242222713804583
 20
0.5869572950654992
 30
0.0
 11
9.8242222713804566
 21
5.7681628980595541
 31
0.0
  0
SOLID
  5
152
  8
0
 62
     1
 10
9.7825556047137887
 20
17.3448313108135288
 30
0.0
 11
9.8658889380471209
 21
17.3448313108135288
 31
0.0
 12
9.8242222713804548
 22
17.5948313108135288
 32
0.0
 13
9.8242222713804548
 23
17.5948313108135288
 33
0.0
  0
SOLID
  5
153
  8
0
 62
     1
 10
9.7825556047137923
 20
0.5869572950654992
 30
0.0
 11
9.8658889380471244
 21
0.5869572950654992
 31
0.0
 12
9.8242222713804583
 22
0.3369572950654991
 32
0.0
 13
9.8242222713804583
 23
0.3369572950654991
 33
0.0
  0
INSERT
  5
154
  8
0
  2
*U21
 10
0.0
 20
0.0
 30
0.0
  0
POINT
  5
155
  8
DEFPOINTS
 62
     0
 10
9.0422619441688248
 20
17.5948313108135288
 30
0.0
  0
POINT
  5
156
  8
DEFPOINTS
 62
     0
 10
9.8953101716835867
 20
0.3369572950654992
 30
0.0
  0
POINT
  5
157
  8
DEFPOINTS
 62
     0
 10
9.8242222713804583
 20
0.3369572950654991
 30
0.0
  0
ENDBLK
  5
138
  8
0
  0
BLOCK
  8
0
  2
*D12
 70
     1
 10
0.0
 20
0.0
 30
0.0
  3
*D12
  1

  0
LINE
  5
158
  8
0
 62
     1
 10
6.4849338230908478
 20
3.6830612837792631
 30
0.0
 11
14.9432671564241808
 21
3.6830612837792631
 31
0.0
  0
LINE
  5
159
  8
0
 62
     1
 10
29.2349338230908486
 20
3.6830612837792631
 30
0.0
 11
20.7766004897575201
 21
3.6830612837792631
 31
0.0
  0
SOLID
  5
15A
  8
0
 62
     1
 10
6.4849338230908478
 20
3.7247279504459301
 30
0.0
 11
6.4849338230908478
 21
3.641394617112597
 31
0.0
 12
6.2349338230908478
 22
3.6830612837792631
 32
0.0
 13
6.2349338230908478
 23
3.6830612837792631
 33
0.0
  0
SOLID
  5
15B
  8
0
 62
     1
 10
29.2349338230908486
 20
3.7247279504459301
 30
0.0
 11
29.2349338230908486
 21
3.641394617112597
 31
0.0
 12
29.4849338230908486
 22
3.6830612837792631
 32
0.0
 13
29.4849338230908486
 23
3.6830612837792631
 33
0.0
  0
INSERT
  5
15C
  8
0
  2
*U22
 10
0.0
 20
0.0
 30
0.0
  0
POINT
  5
15D
  8
DEFPOINTS
 62
     0
 10
6.2349338230908478
 20
3.6830612837792631
 30
0.0
  0
POINT
  5
15E
  8
DEFPOINTS
 62
     0
 10
29.4849338230908486
 20
3.6830612837792631
 30
0.0
  0
POINT
  5
15F
  8
DEFPOINTS
 62
     0
 10
29.4849338230908486
 20
3.6830612837792631
 30
0.0
  0
ENDBLK
  5
145
  8
0
  0
BLOCK
  8
0
  2
*U13
 70
     1
 10
0.0
 20
0.0
 30
0.0
  3
*U13
  1

  0
TEXT
  5
1CA
  8
0
 62
     1
 10
186.3359072916103969
 20
293.3424560406006094
 30
0.0
 40
1.0
  1
17 1/4
  7
SX
  0
ENDBLK
  5
1CC
  8
0
  0
BLOCK
  8
0
  2
*U14
 70
     1
 10
0.0
 20
0.0
 30
0.0
  3
*U14
  1

  0
TEXT
  5
1CE
  8
0
 62
     1
 10
194.2763807480828007
 20
290.2454496644155029
 30
0.0
 40
1.0
  1
23 1/4
  7
SX
  0
ENDBLK
  5
1D0
  8
0
  0
BLOCK
  8
0
  2
*U15
 70
     1
 10
0.0
 20
0.0
 30
0.0
  3
*U15
  1

  0
TEXT
  5
1D6
  8
0
 10
5.5981776391588758
 20
11.8957389728498697
 30
0.0
 40
2.5
  1
Undermount
  7
MMISOCP
  0
ENDBLK
  5
1D8
  8
0
  0
BLOCK
  8
0
  2
*U16
 70
     1
 10
0.0
 20
0.0
 30
0.0
  3
*U16
  1

  0
TEXT
  5
1DA
  8
0
 62
     1
 10
6.4732846708466996
 20
8.2847770224867503
 30
0.0
 40
1.0
  1
17 1/4
  7
SX
  0
ENDBLK
  5
1DC
  8
0
  0
BLOCK
  8
0
  2
*U17
 70
     1
 10
0.0
 20
0.0
 30
0.0
  3
*U17
  1

  0
TEXT
  5
1DE
  8
0
 62
     1
 10
14.4137581273189994
 20
5.1877706463016979
 30
0.0
 40
1.0
  1
23 1/4
  7
SX
  0
ENDBLK
  5
1E0
  8
0
  0
BLOCK
  8
0
  2
*U18
 70
     1
 10
0.0
 20
0.0
 30
0.0
  3
*U18
  1

  0
TEXT
  5
1E3
  8
0
 62
     1
 10
186.3359072916103969
 20
293.3424560406006094
 30
0.0
 40
1.0
  1
17 1/4
  7
SX
  0
ENDBLK
  5
1E5
  8
0
  0
BLOCK
  8
0
  2
*U19
 70
     1
 10
0.0
 20
0.0
 30
0.0
  3
*U19
  1

  0
TEXT
  5
1E7
  8
0
 62
     1
 10
194.2763807480828007
 20
290.2454496644155029
 30
0.0
 40
1.0
  1
23 1/4
  7
SX
  0
ENDBLK
  5
1E9
  8
0
  0
BLOCK
  8
0
  2
*U20
 70
     1
 10
0.0
 20
0.0
 30
0.0
  3
*U20
  1

  0
TEXT
  5
1EB
  8
0
 10
5.5981776391588758
 20
11.8957389728498697
 30
0.0
 40
2.5
  1
Undermount
  7
MMISOCP
  0
ENDBLK
  5
1ED
  8
0
  0
BLOCK
  8
0
  2
*U21
 70
     1
 10
0.0
 20
0.0
 30
0.0
  3
*U21
  1

  0
TEXT
  5
1EF
  8
0
 62
     1
 10
7.2527936999518854
 20
6.4467343266309793
 30
0.0
 40
1.0
  1
17 1/4
  7
SX
  0
ENDBLK
  5
1F1
  8
0
  0
BLOCK
  8
0
  2
*U22
 70
     1
 10
0.0
 20
0.0
 30
0.0
  3
*U22
  1

  0
TEXT
  5
1F3
  8
0
 62
     1
 10
15.1932671564241808
 20
3.3497279504459301
 30
0.0
 40
1.0
  1
23 1/4
  7
SX
  0
ENDBLK
  5
1F5
  8
0
  0
ENDSEC
  0
SECTION
  2
ENTITIES
  0
LINE
  5
BF
  8
0
 10
5.4554247939856628
 20
18.5204724318662102
 30
0.0
 11
5.4554247939856628
 21
3.0874015657244658
 31
0.0
  0
ARC
  5
C0
  8
0
 10
6.3678263687888608
 20
3.0874015657244658
 30
0.0
 40
0.9124015748031499
 50
180.0
 51
270.0
  0
LINE
  5
C1
  8
0
 10
6.3678263687888608
 20
2.1749999909212678
 30
0.0
 11
27.8245192821746983
 21
2.1749999909212678
 31
0.0
  0
LINE
  5
C2
  8
0
 10
6.3678263687888608
 20
19.4328740066693015
 30
0.0
 11
27.8245192821746983
 21
19.4328740066693015
 31
0.0
  0
ARC
  5
C3
  8
0
 10
6.3678263687888608
 20
18.5204724318662102
 30
0.0
 40
0.9124015748031499
 50
90.0
 51
180.0
  0
LINE
  5
C6
  8
0
 10
28.7054247939856708
 20
18.5204724318662102
 30
0.0
 11
28.7054247939856708
 21
3.0874015657244658
 31
0.0
  0
ARC
  5
C7
  8
0
 10
27.7930232191824693
 20
3.0874015657244658
 30
0.0
 40
0.9124015748031499
 50
270.0
 51
0.0
  0
ARC
  5
C8
  8
0
 10
27.7930232191824693
 20
18.5204724318662102
 30
0.0
 40
0.9124015748031499
 50
0.0
 51
90.0
  0
VIEWPORT
  5
FD
 67
     1
  8
0
 10
14.1206299312967296
 20
7.1402769122647909
 30
0.0
 40
46.1032654076453383
 41
23.022079328561361
 68
     1
 69
     1
1001
ACAD
1000
MVIEW
1002
{
1070
    16
1010
0.0
1020
0.0
1030
0.0
1010
0.0
1020
0.0
1030
1.0
1040
0.0
1040
23.022079328561361
1040
14.1206299312967296
1040
7.1402769122647909
1040
50.0
1040
0.0
1040
0.0
1070
     0
1070
  1000
1070
     1
1070
     1
1070
     0
1070
     0
1070
     0
1070
     0
1040
0.0
1040
0.0
1040
0.0
1040
0.5
1040
0.5
1040
0.5
1040
0.5
1070
     0
1002
{
1002
}
1002
}
  0
LINE
  5
12B
 67
     1
  8
0
 10
6.2349338230908478
 20
16.682429736010441
 30
0.0
 11
6.2349338230908478
 21
1.249358869868697
 31
0.0
  0
ARC
  5
12C
 67
     1
  8
0
 10
7.1473353978940457
 20
1.249358869868697
 30
0.0
 40
0.9124015748031499
 50
180.0
 51
270.0
  0
LINE
  5
12D
 67
     1
  8
0
 10
7.1473353978940457
 20
0.3369572950654991
 30
0.0
 11
28.6040283112798797
 21
0.3369572950654991
 31
0.0
  0
LINE
  5
12E
 67
     1
  8
0
 10
7.1473353978940457
 20
17.5948313108135288
 30
0.0
 11
28.6040283112798797
 21
17.5948313108135288
 31
0.0
  0
ARC
  5
12F
 67
     1
  8
0
 10
7.1473353978940457
 20
16.682429736010441
 30
0.0
 40
0.9124015748031499
 50
90.0
 51
180.0
  0
LINE
  5
132
 67
     1
  8
0
 10
29.4849338230908486
 20
16.682429736010441
 30
0.0
 11
29.4849338230908486
 21
1.249358869868697
 31
0.0
  0
ARC
  5
133
 67
     1
  8
0
 10
28.5725322482876507
 20
1.249358869868697
 30
0.0
 40
0.9124015748031499
 50
270.0
 51
0.0
  0
ARC
  5
134
 67
     1
  8
0
 10
28.5725322482876507
 20
16.682429736010441
 30
0.0
 40
0.9124015748031499
 50
0.0
 51
90.0
  0
ENDSEC
  0
EOF
