  0
SECTION
  2
HEADER
  9
$ACADVER
  1
AC1009
  9
$INSBASE
 10
0.0
 20
0.0
 30
0.0
  9
$EXTMIN
 10
54.2164116956727185
 20
22.7338951958961708
 30
0.0
  9
$EXTMAX
 10
84.5914110736339353
 20
42.2338984801188388
 30
0.0
  9
$LIMMIN
 10
0.0
 20
0.0
  9
$LIMMAX
 10
12.0
 20
9.0
  9
$ORTHOMODE
 70
     0
  9
$REGENMODE
 70
     1
  9
$FILLMODE
 70
     1
  9
$QTEXTMODE
 70
     0
  9
$MIRRTEXT
 70
     0
  9
$DRAGMODE
 70
     2
  9
$LTSCALE
 40
1.0
  9
$OSMODE
 70
   679
  9
$ATTMODE
 70
     1
  9
$TEXTSIZE
 40
0.2
  9
$TRACEWID
 40
0.05
  9
$TEXTSTYLE
  7
STANDARD
  9
$CLAYER
  8
0
  9
$CELTYPE
  6
BYLAYER
  9
$CECOLOR
 62
   256
  9
$DIMSCALE
 40
1.0
  9
$DIMASZ
 40
0.18
  9
$DIMEXO
 40
0.0625
  9
$DIMDLI
 40
0.38
  9
$DIMRND
 40
0.0
  9
$DIMDLE
 40
0.0
  9
$DIMEXE
 40
0.18
  9
$DIMTP
 40
0.0
  9
$DIMTM
 40
0.0
  9
$DIMTXT
 40
0.18
  9
$DIMCEN
 40
0.09
  9
$DIMTSZ
 40
0.0
  9
$DIMTOL
 70
     0
  9
$DIMLIM
 70
     0
  9
$DIMTIH
 70
     1
  9
$DIMTOH
 70
     1
  9
$DIMSE1
 70
     0
  9
$DIMSE2
 70
     0
  9
$DIMTAD
 70
     0
  9
$DIMZIN
 70
     0
  9
$DIMBLK
  1

  9
$DIMASO
 70
     1
  9
$DIMSHO
 70
     1
  9
$DIMPOST
  1

  9
$DIMAPOST
  1

  9
$DIMALT
 70
     0
  9
$DIMALTD
 70
     2
  9
$DIMALTF
 40
25.3999999999999986
  9
$DIMLFAC
 40
1.0
  9
$DIMTOFL
 70
     0
  9
$DIMTVP
 40
0.0
  9
$DIMTIX
 70
     0
  9
$DIMSOXD
 70
     0
  9
$DIMSAH
 70
     0
  9
$DIMBLK1
  1

  9
$DIMBLK2
  1

  9
$DIMSTYLE
  2
STANDARD
  9
$DIMCLRD
 70
     0
  9
$DIMCLRE
 70
     0
  9
$DIMCLRT
 70
     0
  9
$DIMTFAC
 40
1.0
  9
$DIMGAP
 40
0.09
  9
$LUNITS
 70
     2
  9
$LUPREC
 70
     4
  9
$SKETCHINC
 40
0.1
  9
$FILLETRAD
 40
0.0
  9
$AUNITS
 70
     0
  9
$AUPREC
 70
     0
  9
$MENU
  1
.
  9
$ELEVATION
 40
0.0
  9
$PELEVATION
 40
0.0
  9
$THICKNESS
 40
0.0
  9
$LIMCHECK
 70
     0
  9
$BLIPMODE
 70
     0
  9
$CHAMFERA
 40
0.0
  9
$CHAMFERB
 40
0.0
  9
$SKPOLY
 70
     0
  9
$TDCREATE
 40
2459048.4694212968461215
  9
$TDUPDATE
 40
2459048.4704050929285586
  9
$TDINDWG
 40
0.0009953704
  9
$TDUSRTIMER
 40
0.0009953704
  9
$USRTIMER
 70
     1
  9
$ANGBASE
 50
0.0
  9
$ANGDIR
 70
     0
  9
$PDMODE
 70
     0
  9
$PDSIZE
 40
0.0
  9
$PLINEWID
 40
0.0
  9
$COORDS
 70
     1
  9
$SPLFRAME
 70
     0
  9
$SPLINETYPE
 70
     6
  9
$SPLINESEGS
 70
     8
  9
$ATTDIA
 70
     1
  9
$ATTREQ
 70
     1
  9
$HANDLING
 70
     1
  9
$HANDSEED
  5
170
  9
$SURFTAB1
 70
     6
  9
$SURFTAB2
 70
     6
  9
$SURFTYPE
 70
     6
  9
$SURFU
 70
     6
  9
$SURFV
 70
     6
  9
$UCSNAME
  2

  9
$UCSORG
 10
0.0
 20
0.0
 30
0.0
  9
$UCSXDIR
 10
1.0
 20
0.0
 30
0.0
  9
$UCSYDIR
 10
0.0
 20
1.0
 30
0.0
  9
$PUCSNAME
  2

  9
$PUCSORG
 10
0.0
 20
0.0
 30
0.0
  9
$PUCSXDIR
 10
1.0
 20
0.0
 30
0.0
  9
$PUCSYDIR
 10
0.0
 20
1.0
 30
0.0
  9
$USERI1
 70
     0
  9
$USERI2
 70
     0
  9
$USERI3
 70
     0
  9
$USERI4
 70
     0
  9
$USERI5
 70
     0
  9
$USERR1
 40
0.0
  9
$USERR2
 40
0.0
  9
$USERR3
 40
0.0
  9
$USERR4
 40
0.0
  9
$USERR5
 40
0.0
  9
$WORLDVIEW
 70
     1
  9
$SHADEDGE
 70
     3
  9
$SHADEDIF
 70
    70
  9
$TILEMODE
 70
     1
  9
$MAXACTVP
 70
    64
  9
$PLIMCHECK
 70
     0
  9
$PEXTMIN
 10
-5.4266210631808507
 20
-0.4964999892767961
 30
0.0
  9
$PEXTMAX
 10
39.5064667204508524
 20
26.6755733271255906
 30
0.0
  9
$PLIMMIN
 10
0.0
 20
0.0
  9
$PLIMMAX
 10
12.0
 20
9.0
  9
$UNITMODE
 70
     0
  9
$VISRETAIN
 70
     1
  9
$PLINEGEN
 70
     0
  9
$PSLTSCALE
 70
     1
  0
ENDSEC
  0
SECTION
  2
TABLES
  0
TABLE
  2
VPORT
 70
     1
  0
VPORT
  2
*ACTIVE
 70
     0
 10
0.0
 20
0.0
 11
1.0
 21
1.0
 12
65.7809473079022666
 22
32.6295056349436123
 13
0.0
 23
0.0
 14
0.5
 24
0.5
 15
0.5
 25
0.5
 16
0.0
 26
0.0
 36
1.0
 17
0.0
 27
0.0
 37
0.0
 40
37.0154697070156331
 41
2.3744292237442921
 42
50.0
 43
0.0
 44
0.0
 50
0.0
 51
0.0
 71
     0
 72
  1000
 73
     1
 74
     3
 75
     0
 76
     0
 77
     0
 78
     0
  0
ENDTAB
  0
TABLE
  2
LTYPE
 70
     1
  0
LTYPE
  2
CONTINUOUS
 70
     0
  3
Solid line
 72
    65
 73
     0
 40
0.0
  0
ENDTAB
  0
TABLE
  2
LAYER
 70
     2
  0
LAYER
  2
0
 70
     0
 62
     7
  6
CONTINUOUS
  0
LAYER
  2
CUTOUT
 70
     0
 62
     2
  6
CONTINUOUS
  0
ENDTAB
  0
TABLE
  2
STYLE
 70
     3
  0
STYLE
  2
STANDARD
 70
     0
 40
0.0
 41
1.0
 50
0.0
 71
     0
 42
0.2
  3
txt
  4

  0
STYLE
  2
ANNOTATIVE
 70
     0
 40
0.0
 41
1.0
 50
0.0
 71
     0
 42
0.2
  3
txt
  4

  0
STYLE
  2
SX
 70
     0
 40
1.0
 41
1.0
 50
0.0
 71
     0
 42
1.0
  3
simplex.shx
  4

  0
ENDTAB
  0
TABLE
  2
VIEW
 70
     2
  0
ENDTAB
  0
TABLE
  2
UCS
 70
     0
  0
ENDTAB
  0
TABLE
  2
APPID
 70
     5
  0
APPID
  2
ACAD
 70
     0
  0
APPID
  2
ACADANNOTATIVE
 70
     0
  0
APPID
  2
ACAD_NAV_VCDISPLAY
 70
     0
  0
APPID
  2
ACAD_PSEXT
 70
     0
  0
APPID
  2
ACAD_MLEADERVER
 70
     0
  0
ENDTAB
  0
TABLE
  2
DIMSTYLE
 70
     3
  0
DIMSTYLE
  2
STANDARD
 70
     0
  3

  4

  5

  6

  7

 40
1.0
 41
0.18
 42
0.0625
 43
0.38
 44
0.18
 45
0.0
 46
0.0
 47
0.0
 48
0.0
140
0.18
141
0.09
142
0.0
143
25.3999999999999986
144
1.0
145
0.0
146
1.0
147
0.09
 71
     0
 72
     0
 73
     1
 74
     1
 75
     0
 76
     0
 77
     0
 78
     0
170
     0
171
     2
172
     0
173
     0
174
     0
175
     0
176
     0
177
     0
178
     0
  0
DIMSTYLE
  2
ANNOTATIVE
 70
     0
  3

  4

  5

  6

  7

 40
1.0
 41
0.18
 42
0.0625
 43
0.38
 44
0.18
 45
0.0
 46
0.0
 47
0.0
 48
0.0
140
0.18
141
0.09
142
0.0
143
25.3999999999999986
144
1.0
145
0.0
146
1.0
147
0.09
 71
     0
 72
     0
 73
     1
 74
     1
 75
     0
 76
     0
 77
     0
 78
     0
170
     0
171
     2
172
     0
173
     0
174
     0
175
     0
176
     0
177
     0
178
     0
  0
DIMSTYLE
  2
CATALOG
 70
     0
  3
" 
  4
cm
  5

  6
DOT
  7
DOT
 40
2.0
 41
0.25
 42
0.25
 43
0.375
 44
0.25
 45
0.0
 46
0.0
 47
0.0
 48
0.0
140
0.375
141
0.0
142
0.0
143
2.54
144
1.0
145
0.0
146
1.0
147
0.25
 71
     0
 72
     0
 73
     0
 74
     0
 75
     0
 76
     0
 77
     0
 78
     0
170
     1
171
     0
172
     0
173
     1
174
     0
175
     0
176
   256
177
   256
178
   256
  0
ENDTAB
  0
ENDSEC
  0
SECTION
  2
BLOCKS
  0
BLOCK
  8
0
  2
$MODEL_SPACE
 70
     0
 10
0.0
 20
0.0
 30
0.0
  3
$MODEL_SPACE
  1

  0
ENDBLK
  5
72
  8
0
  0
BLOCK
 67
     1
  8
0
  2
$PAPER_SPACE
 70
     0
 10
0.0
 20
0.0
 30
0.0
  3
$PAPER_SPACE
  1

  0
ENDBLK
  5
6E
 67
     1
  8
0
  0
BLOCK
  8
0
  2
_DOT
 70
     0
 10
0.0
 20
0.0
 30
0.0
  3
_DOT
  1

  0
POLYLINE
  5
7E
  8
0
  6
BYBLOCK
 62
     0
 66
     1
 10
0.0
 20
0.0
 30
0.0
 70
     1
 40
0.5
 41
0.5
  0
VERTEX
  5
158
  8
0
  6
BYBLOCK
 62
     0
 10
-0.25
 20
0.0
 30
0.0
 42
1.0
  0
VERTEX
  5
159
  8
0
  6
BYBLOCK
 62
     0
 10
0.25
 20
0.0
 30
0.0
 42
1.0
  0
SEQEND
  5
15A
  8
0
  6
BYBLOCK
 62
     0
  0
LINE
  5
7F
  8
0
  6
BYBLOCK
 62
     0
 10
-0.5
 20
0.0
 30
0.0
 11
-1.0
 21
0.0
 31
0.0
  0
ENDBLK
  5
80
  8
0
  0
ENDSEC
  0
SECTION
  2
ENTITIES
  0
ARC
  5
9F
  8
0
 10
60.7757727121341418
 20
35.2220344709539503
 30
0.0
 40
6.5
 50
110.606925820598093
 51
178.2944991929132073
  0
ARC
  5
A0
  8
0
 10
63.5914110736339566
 20
27.7338984801188495
 30
0.0
 40
14.5
 50
90.0
 51
110.606925820598093
  0
ARC
  5
A1
  8
0
 10
63.59141169567269
 20
27.7338968380075315
 30
0.0
 40
14.5
 50
69.3930741794018786
 51
90.0
  0
ARC
  5
A2
  8
0
 10
66.407050057172512
 20
35.222032828842643
 30
0.0
 40
6.5
 50
32.9356815005407313
 51
69.3930741794018786
  0
ARC
  5
A3
  8
0
 10
77.1673380839870759
 20
35.644062688032669
 30
0.0
 40
4.0
 50
96.3812066651922663
 51
140.3937290381313971
  0
ARC
  5
A4
  8
0
 10
78.7789110736339495
 20
21.2338984801188495
 30
0.0
 40
18.5
 50
90.0
 51
96.3812066651922663
  0
ARC
  5
A5
  8
0
 10
80.3904840632807947
 20
35.644062688032669
 30
0.0
 40
4.0
 50
5.2171817922059791
 51
83.6187933348077479
  0
ARC
  5
A6
  8
0
 10
78.7789110736339353
 20
21.2338984801188495
 30
0.0
 40
18.5
 50
83.6187933348077479
 51
90.0
  0
ARC
  5
A7
  8
0
 10
32.0914110736339282
 20
31.2338984801188495
 30
0.0
 40
52.5
 50
0.0
 51
5.2171817922059791
  0
ARC
  5
A8
  8
0
 10
80.3904840632808089
 20
26.8237342722050087
 30
0.0
 40
4.0
 50
276.3812066651922237
 51
354.7828182077939232
  0
ARC
  5
A9
  8
0
 10
32.0914110736339424
 20
31.2338984801188317
 30
0.0
 40
52.5
 50
354.7828182077939232
 51
0.0
  0
ARC
  5
AA
  8
0
 10
78.7789110736339353
 20
41.2338984801188317
 30
0.0
 40
18.5
 50
270.0
 51
276.3812066651922237
  0
ARC
  5
AB
  8
0
 10
78.7789110736339353
 20
41.2338984801188317
 30
0.0
 40
18.5
 50
263.6187933348077763
 51
270.0
  0
ARC
  5
AC
  8
0
 10
63.5914110736338927
 20
163.2338951958961104
 30
0.0
 40
140.5
 50
270.0
 51
272.2269804576612273
  0
ARC
  5
AD
  8
0
 10
63.5914116956727611
 20
163.2338968380074959
 30
0.0
 40
140.5
 50
267.7730195423387158
 51
270.0
  0
ARC
  5
AE
  8
0
 10
58.2872461640792778
 20
26.8369913452015005
 30
0.0
 40
4.0
 50
181.8459180082303988
 51
267.7730195423387158
  0
ARC
  5
AF
  8
0
 10
194.71641169567269
 20
31.2338984801188495
 30
0.0
 40
140.5
 50
180.0
 51
181.8459180082296882
  0
ARC
  5
B0
  8
0
 10
194.71641169567269
 20
31.2338984801188495
 30
0.0
 40
140.5
 50
178.2944991929130083
 51
180.0
  0
LINE
  5
B1
  8
0
 10
69.0510100273987035
 20
22.8400107875500815
 30
0.0
 11
76.722766224774162
 21
22.8485165596770514
 31
0.0
  0
POLYLINE
  5
B2
  8
0
 66
     1
 10
0.0
 20
0.0
 30
0.0
  0
VERTEX
  5
160
  8
0
 10
71.862379382087255
 20
38.7560647976744406
 30
0.0
 42
0.0438111449616485
  0
VERTEX
  5
161
  8
0
 10
72.5823124653204701
 20
38.1094143086869792
 30
0.0
 42
0.2143267986562817
  0
VERTEX
  5
162
  8
0
 10
73.516939822947279
 20
37.8984564667047721
 30
0.0
 42
0.1405062267025179
  0
VERTEX
  5
163
  8
0
 10
74.0855641928427247
 20
38.1940959591609328
 30
0.0
 42
-1.906541372345369
  0
SEQEND
  5
164
  8
0
  0
VIEWPORT
  5
BE
 67
     1
  8
0
 10
45.528038535184713
 20
15.0908756433492304
 30
0.0
 40
223.9049639917681134
 41
94.2984367580715741
 68
     1
 69
     1
1001
ACAD
1000
MVIEW
1002
{
1070
    16
1010
0.0
1020
0.0
1030
0.0
1010
0.0
1020
0.0
1030
1.0
1040
0.0
1040
94.2984367580715741
1040
45.528038535184713
1040
15.0908756433492304
1040
50.0
1040
0.0
1040
0.0
1070
     0
1070
  1000
1070
     1
1070
     1
1070
     0
1070
     0
1070
     0
1070
     0
1040
0.0
1040
0.0
1040
0.0
1040
0.5
1040
0.5
1040
0.5
1040
0.5
1070
     0
1002
{
1002
}
1002
}
  0
ARC
  5
DF
 67
     1
  8
0
 10
15.6908283589510393
 20
19.6637093179606914
 30
0.0
 40
6.5
 50
110.6069258205983061
 51
178.2944991929132073
  0
ARC
  5
E0
 67
     1
  8
0
 10
18.5064667204508595
 20
12.1755733271255906
 30
0.0
 40
14.5
 50
90.0
 51
110.6069258205983061
  0
ARC
  5
E1
 67
     1
  8
0
 10
18.5064673424895787
 20
12.1755716850142708
 30
0.0
 40
14.5
 50
69.3930741794020776
 51
90.0
  0
ARC
  5
E2
 67
     1
  8
0
 10
21.3221057039894113
 20
19.6637076758493805
 30
0.0
 40
6.5
 50
32.9356815005406673
 51
69.3930741794020776
  0
ARC
  5
E3
 67
     1
  8
0
 10
32.0823937308039717
 20
20.0857375350394207
 30
0.0
 40
4.0
 50
96.3812066651924653
 51
140.3937290381313971
  0
ARC
  5
E4
 67
     1
  8
0
 10
33.6939667204508382
 20
5.6755733271255941
 30
0.0
 40
18.5
 50
90.0
 51
96.3812066651924653
  0
ARC
  5
E5
 67
     1
  8
0
 10
35.3055397100976904
 20
20.0857375350394207
 30
0.0
 40
4.0
 50
5.2171817922059889
 51
83.6187933348079468
  0
ARC
  5
E6
 67
     1
  8
0
 10
33.6939667204508311
 20
5.6755733271255941
 30
0.0
 40
18.5
 50
83.6187933348079468
 51
90.0
  0
ARC
  5
E7
 67
     1
  8
0
 10
-12.9935332795491707
 20
15.6755733271255906
 30
0.0
 40
52.5
 50
0.0
 51
5.2171817922059889
  0
ARC
  5
E8
 67
     1
  8
0
 10
35.3055397100977117
 20
11.2654091192117498
 30
0.0
 40
4.0
 50
276.38120666519211
 51
354.78281820779398
  0
ARC
  5
E9
 67
     1
  8
0
 10
-12.99353327954916
 20
15.6755733271255693
 30
0.0
 40
52.5
 50
354.78281820779398
 51
0.0
  0
ARC
  5
EA
 67
     1
  8
0
 10
33.6939667204508311
 20
25.6755733271255799
 30
0.0
 40
18.5
 50
270.0
 51
276.38120666519211
  0
ARC
  5
EB
 67
     1
  8
0
 10
33.6939667204508311
 20
25.6755733271255799
 30
0.0
 40
18.5
 50
263.6187933348074921
 51
270.0
  0
ARC
  5
EC
 67
     1
  8
0
 10
18.5064667204507884
 20
147.6755700429029048
 30
0.0
 40
140.5
 50
270.0
 51
272.2269804576609999
  0
ARC
  5
ED
 67
     1
  8
0
 10
18.5064673424896604
 20
147.6755716850142051
 30
0.0
 40
140.5
 50
267.7730195423384885
 51
270.0
  0
ARC
  5
EE
 67
     1
  8
0
 10
13.2023018108961701
 20
11.2786661922082505
 30
0.0
 40
4.0
 50
181.8459180082303988
 51
267.7730195423384885
  0
ARC
  5
EF
 67
     1
  8
0
 10
149.6314673424896
 20
15.6755733271255906
 30
0.0
 40
140.5
 50
180.0
 51
181.8459180082296882
  0
ARC
  5
F0
 67
     1
  8
0
 10
149.6314673424896
 20
15.6755733271255906
 30
0.0
 40
140.5
 50
178.2944991929130083
 51
180.0
  0
LINE
  5
F1
 67
     1
  8
0
 10
23.9660656742155993
 20
7.2816856345568217
 30
0.0
 11
31.6378218715910613
 21
7.2901914066837961
 31
0.0
  0
POLYLINE
  5
F2
 67
     1
  8
0
 66
     1
 10
0.0
 20
0.0
 30
0.0
  0
VERTEX
  5
16B
 67
     1
  8
0
 10
26.7774350289041685
 20
23.1977396446811888
 30
0.0
 42
0.0438111449616485
  0
VERTEX
  5
16C
 67
     1
  8
0
 10
27.4973681121373694
 20
22.551089155693731
 30
0.0
 42
0.2143267986562817
  0
VERTEX
  5
16D
 67
     1
  8
0
 10
28.4319954697641784
 20
22.3401313137115096
 30
0.0
 42
0.1405062267025179
  0
VERTEX
  5
16E
 67
     1
  8
0
 10
29.0006198396596417
 20
22.6357708061676703
 30
0.0
 42
-1.906541372345369
  0
SEQEND
  5
16F
 67
     1
  8
0
  0
ENDSEC
  0
EOF
