  0
SECTION
  2
HEADER
  9
$ACADVER
  1
AC1009
  9
$INSBASE
 10
0.0
 20
0.0
 30
0.0
  9
$EXTMIN
 10
1.0000000000000000E+020
 20
1.0000000000000000E+020
 30
1.0000000000000000E+020
  9
$EXTMAX
 10
-1.0000000000000000E+020
 20
-1.0000000000000000E+020
 30
-1.0000000000000000E+020
  9
$LIMMIN
 10
0.0
 20
0.0
  9
$LIMMAX
 10
12.0
 20
9.0
  9
$ORTHOMODE
 70
     0
  9
$REGENMODE
 70
     1
  9
$FILLMODE
 70
     1
  9
$QTEXTMODE
 70
     0
  9
$MIRRTEXT
 70
     0
  9
$DRAGMODE
 70
     2
  9
$LTSCALE
 40
1.0
  9
$OSMODE
 70
   703
  9
$ATTMODE
 70
     1
  9
$TEXTSIZE
 40
0.2
  9
$TRACEWID
 40
0.05
  9
$TEXTSTYLE
  7
STANDARD
  9
$CLAYER
  8
0
  9
$CELTYPE
  6
BYLAYER
  9
$CECOLOR
 62
   256
  9
$DIMSCALE
 40
1.0
  9
$DIMASZ
 40
0.18
  9
$DIMEXO
 40
0.0625
  9
$DIMDLI
 40
0.38
  9
$DIMRND
 40
0.0
  9
$DIMDLE
 40
0.0
  9
$DIMEXE
 40
0.18
  9
$DIMTP
 40
0.0
  9
$DIMTM
 40
0.0
  9
$DIMTXT
 40
0.18
  9
$DIMCEN
 40
0.09
  9
$DIMTSZ
 40
0.0
  9
$DIMTOL
 70
     0
  9
$DIMLIM
 70
     0
  9
$DIMTIH
 70
     1
  9
$DIMTOH
 70
     1
  9
$DIMSE1
 70
     0
  9
$DIMSE2
 70
     0
  9
$DIMTAD
 70
     0
  9
$DIMZIN
 70
     0
  9
$DIMBLK
  1

  9
$DIMASO
 70
     1
  9
$DIMSHO
 70
     1
  9
$DIMPOST
  1

  9
$DIMAPOST
  1

  9
$DIMALT
 70
     0
  9
$DIMALTD
 70
     2
  9
$DIMALTF
 40
25.399999999999999
  9
$DIMLFAC
 40
1.0
  9
$DIMTOFL
 70
     0
  9
$DIMTVP
 40
0.0
  9
$DIMTIX
 70
     0
  9
$DIMSOXD
 70
     0
  9
$DIMSAH
 70
     0
  9
$DIMBLK1
  1

  9
$DIMBLK2
  1

  9
$DIMSTYLE
  2
STANDARD
  9
$DIMCLRD
 70
     0
  9
$DIMCLRE
 70
     0
  9
$DIMCLRT
 70
     0
  9
$DIMTFAC
 40
1.0
  9
$DIMGAP
 40
0.09
  9
$LUNITS
 70
     2
  9
$LUPREC
 70
     4
  9
$SKETCHINC
 40
0.1
  9
$FILLETRAD
 40
0.0
  9
$AUNITS
 70
     0
  9
$AUPREC
 70
     0
  9
$MENU
  1
.
  9
$ELEVATION
 40
0.0
  9
$PELEVATION
 40
0.0
  9
$THICKNESS
 40
0.0
  9
$LIMCHECK
 70
     0
  9
$BLIPMODE
 70
     0
  9
$CHAMFERA
 40
0.0
  9
$CHAMFERB
 40
0.0
  9
$SKPOLY
 70
     0
  9
$TDCREATE
 40
2457583.6071105562
  9
$TDUPDATE
 40
2457583.6077476619
  9
$TDINDWG
 40
0.0006381366
  9
$TDUSRTIMER
 40
0.0006381134
  9
$USRTIMER
 70
     1
  9
$ANGBASE
 50
0.0
  9
$ANGDIR
 70
     0
  9
$PDMODE
 70
     0
  9
$PDSIZE
 40
0.0
  9
$PLINEWID
 40
0.0
  9
$COORDS
 70
     1
  9
$SPLFRAME
 70
     0
  9
$SPLINETYPE
 70
     6
  9
$SPLINESEGS
 70
     8
  9
$ATTDIA
 70
     1
  9
$ATTREQ
 70
     1
  9
$HANDLING
 70
     1
  9
$HANDSEED
  5
12D
  9
$SURFTAB1
 70
     6
  9
$SURFTAB2
 70
     6
  9
$SURFTYPE
 70
     6
  9
$SURFU
 70
     6
  9
$SURFV
 70
     6
  9
$UCSNAME
  2

  9
$UCSORG
 10
0.0
 20
0.0
 30
0.0
  9
$UCSXDIR
 10
1.0
 20
0.0
 30
0.0
  9
$UCSYDIR
 10
0.0
 20
1.0
 30
0.0
  9
$PUCSNAME
  2

  9
$PUCSORG
 10
0.0
 20
0.0
 30
0.0
  9
$PUCSXDIR
 10
1.0
 20
0.0
 30
0.0
  9
$PUCSYDIR
 10
0.0
 20
1.0
 30
0.0
  9
$USERI1
 70
     0
  9
$USERI2
 70
     0
  9
$USERI3
 70
     0
  9
$USERI4
 70
     0
  9
$USERI5
 70
     0
  9
$USERR1
 40
0.0
  9
$USERR2
 40
0.0
  9
$USERR3
 40
0.0
  9
$USERR4
 40
0.0
  9
$USERR5
 40
0.0
  9
$WORLDVIEW
 70
     1
  9
$SHADEDGE
 70
     3
  9
$SHADEDIF
 70
    70
  9
$TILEMODE
 70
     0
  9
$MAXACTVP
 70
    64
  9
$PLIMCHECK
 70
     0
  9
$PEXTMIN
 10
-27.39008997272245
 20
-11.87331541259354
 30
0.0
  9
$PEXTMAX
 10
2.6024100252388029
 20
7.2720674621022949
 30
0.0
  9
$PLIMMIN
 10
0.0
 20
0.0
  9
$PLIMMAX
 10
12.0
 20
9.0
  9
$UNITMODE
 70
     0
  9
$VISRETAIN
 70
     1
  9
$PLINEGEN
 70
     0
  9
$PSLTSCALE
 70
     1
  0
ENDSEC
  0
SECTION
  2
TABLES
  0
TABLE
  2
VPORT
 70
     1
  0
VPORT
  2
*ACTIVE
 70
     0
 10
0.0
 20
0.0
 11
1.0
 21
1.0
 12
10.100719424460429
 22
4.5
 13
0.0
 23
0.0
 14
0.5
 24
0.5
 15
0.5
 25
0.5
 16
0.0
 26
0.0
 36
1.0
 17
0.0
 27
0.0
 37
0.0
 40
9.0
 41
2.244604316546762
 42
50.0
 43
0.0
 44
0.0
 50
0.0
 51
0.0
 71
     0
 72
  1000
 73
     1
 74
     3
 75
     0
 76
     0
 77
     0
 78
     0
  0
ENDTAB
  0
TABLE
  2
LTYPE
 70
     1
  0
LTYPE
  2
CONTINUOUS
 70
     0
  3
Solid line
 72
    65
 73
     0
 40
0.0
  0
ENDTAB
  0
TABLE
  2
LAYER
 70
     2
  0
LAYER
  2
0
 70
     0
 62
     7
  6
CONTINUOUS
  0
LAYER
  2
CHAMFER
 70
     0
 62
     7
  6
CONTINUOUS
  0
ENDTAB
  0
TABLE
  2
STYLE
 70
     2
  0
STYLE
  2
STANDARD
 70
     0
 40
0.0
 41
1.0
 50
0.0
 71
     0
 42
0.2
  3
txt
  4

  0
STYLE
  2
ANNOTATIVE
 70
     0
 40
0.0
 41
1.0
 50
0.0
 71
     0
 42
0.2
  3
txt
  4

  0
ENDTAB
  0
TABLE
  2
VIEW
 70
     1
  0
ENDTAB
  0
TABLE
  2
UCS
 70
     0
  0
ENDTAB
  0
TABLE
  2
APPID
 70
     8
  0
APPID
  2
ACAD
 70
     0
  0
APPID
  2
ACADANNOTATIVE
 70
     0
  0
APPID
  2
ACAD_NAV_VCDISPLAY
 70
     0
  0
APPID
  2
ACAD_PSEXT
 70
     0
  0
APPID
  2
GENIUS_GENODEF_13
 70
     0
  0
APPID
  2
GENIUS_GENOBJ-N-FIL_13
 70
     0
  0
APPID
  2
AMACAD
 70
     0
  0
APPID
  2
ACAD_MLEADERVER
 70
     0
  0
ENDTAB
  0
TABLE
  2
DIMSTYLE
 70
     3
  0
DIMSTYLE
  2
STANDARD
 70
     0
  3

  4

  5

  6

  7

 40
1.0
 41
0.18
 42
0.0625
 43
0.38
 44
0.18
 45
0.0
 46
0.0
 47
0.0
 48
0.0
140
0.18
141
0.09
142
0.0
143
25.399999999999999
144
1.0
145
0.0
146
1.0
147
0.09
 71
     0
 72
     0
 73
     1
 74
     1
 75
     0
 76
     0
 77
     0
 78
     0
170
     0
171
     2
172
     0
173
     0
174
     0
175
     0
176
     0
177
     0
178
     0
  0
DIMSTYLE
  2
ANNOTATIVE
 70
     0
  3

  4

  5

  6

  7

 40
1.0
 41
0.18
 42
0.0625
 43
0.38
 44
0.18
 45
0.0
 46
0.0
 47
0.0
 48
0.0
140
0.18
141
0.09
142
0.0
143
25.399999999999999
144
1.0
145
0.0
146
1.0
147
0.09
 71
     0
 72
     0
 73
     1
 74
     1
 75
     0
 76
     0
 77
     0
 78
     0
170
     0
171
     2
172
     0
173
     0
174
     0
175
     0
176
     0
177
     0
178
     0
  0
DIMSTYLE
  2
AM_ANSI
 70
     0
  3

  4
mm
  5

  6

  7

 40
1.0
 41
0.12
 42
0.05
 43
0.5
 44
0.1
 45
0.0
 46
0.0
 47
0.1
 48
0.1
140
0.12
141
0.0
142
0.0
143
25.399999999999999
144
1.0
145
0.0
146
0.71
147
0.06
 71
     0
 72
     0
 73
     1
 74
     1
 75
     0
 76
     0
 77
     0
 78
     7
170
     0
171
     2
172
     0
173
     0
174
     0
175
     0
176
   256
177
   256
178
   140
  0
ENDTAB
  0
ENDSEC
  0
SECTION
  2
BLOCKS
  0
BLOCK
  8
0
  2
$MODEL_SPACE
 70
     0
 10
0.0
 20
0.0
 30
0.0
  3
$MODEL_SPACE
  1

  0
ENDBLK
  5
72
  8
0
  0
BLOCK
 67
     1
  8
0
  2
$PAPER_SPACE
 70
     0
 10
0.0
 20
0.0
 30
0.0
  3
$PAPER_SPACE
  1

  0
ENDBLK
  5
6E
 67
     1
  8
0
  0
ENDSEC
  0
SECTION
  2
ENTITIES
  0
VIEWPORT
  5
89
 67
     1
  8
0
 10
-12.393839973741819
 20
-2.3006239752456219
 30
0.0
 40
43.344272913538617
 41
19.310429278788039
 68
     1
 69
     1
1001
ACAD
1000
MVIEW
1002
{
1070
    16
1010
0.0
1020
0.0
1030
0.0
1010
0.0
1020
0.0
1030
1.0
1040
0.0
1040
19.310429278788039
1040
-12.393839973741819
1040
-2.3006239752456219
1040
50.0
1040
0.0
1040
0.0
1070
     0
1070
  1000
1070
     1
1070
     1
1070
     0
1070
     0
1070
     0
1070
     0
1040
0.0
1040
0.0
1040
0.0
1040
0.5
1040
0.5
1040
0.5
1040
0.5
1070
     0
1002
{
1002
}
1002
}
  0
ARC
  5
AF
 67
     1
  8
CHAMFER
 10
-1.374266985114331
 20
-8.0077279783959607
 30
0.0
 40
3.7757499999999991
 50
276.38120666519251
 51
354.78281820779398
  0
ARC
  5
B0
 67
     1
  8
CHAMFER
 10
-49.673339974761191
 20
-3.5975637704821688
 30
0.0
 40
52.275750000000002
 50
354.78281820779398
 51
0.0
  0
ARC
  5
B1
 67
     1
  8
CHAMFER
 10
-49.673339974761213
 20
-3.472563770482139
 30
0.0
 40
52.275750000000002
 50
0.0
 51
5.2171817922058867
  0
ARC
  5
B2
 67
     1
  8
CHAMFER
 10
-2.9858399747612121
 20
-13.472563770482131
 30
0.0
 40
18.275749999999999
 50
83.618793334807549
 51
90.0
  0
ARC
  5
B3
 67
     1
  8
CHAMFER
 10
-1.3742669851143601
 20
0.9376004374316799
 30
0.0
 40
3.7757499999999991
 50
5.2171817922058867
 51
83.618793334807549
  0
ARC
  5
B4
 67
     1
  8
CHAMFER
 10
-18.239339972722359
 20
128.40243458740639
 30
0.0
 40
140.27574999999999
 50
267.77301954233928
 51
270.0
  0
ARC
  5
B5
 67
     1
  8
CHAMFER
 10
112.8856600272775
 20
-3.503813770482139
 30
0.0
 40
140.27574999999999
 50
178.2944991929125
 51
180.0
  0
ARC
  5
B6
 67
     1
  8
CHAMFER
 10
112.8856600272775
 20
-3.597563770482139
 30
0.0
 40
140.27574999999999
 50
180.0
 51
181.84591800823
  0
ARC
  5
B7
 67
     1
  8
CHAMFER
 10
-23.54350550431586
 20
-7.9944709053994787
 30
0.0
 40
3.7757499999999991
 50
181.84591800823151
 51
267.77301954233928
  0
ARC
  5
B8
 67
     1
  8
CHAMFER
 10
-15.26745161122261
 20
0.4843205782416416
 30
0.0
 40
6.2757500000000004
 50
45.332060335421673
 51
69.393074179401651
  0
ARC
  5
B9
 67
     1
  8
CHAMFER
 10
-18.08419181631016
 20
-7.0078006314742796
 30
0.0
 40
14.279868036577369
 50
69.394563853611089
 51
90.246352689164326
  0
ARC
  5
BA
 67
     1
  8
CHAMFER
 10
-21.054978956260989
 20
0.4843222203529614
 30
0.0
 40
6.2757500000000004
 50
110.60692582059831
 51
178.2944991929125
  0
ARC
  5
BB
 67
     1
  8
CHAMFER
 10
-18.23825190064785
 20
-7.0077514294966639
 30
0.0
 40
14.279818891598961
 50
89.75359370208254
 51
110.60545391919401
  0
ARC
  5
BC
 67
     1
  8
CHAMFER
 10
-2.9858399747611979
 20
6.4024362295178436
 30
0.0
 40
18.275749999999999
 50
270.0
 51
276.38120666519251
  0
LINE
  5
BD
 67
     1
  8
0
 10
-2.9858399747634499
 20
4.8031862295178502
 30
0.0
 11
-10.504120644614179
 21
4.8031862295178254
 31
0.0
  0
LINE
  5
BE
 67
     1
  8
0
 10
-18.239339969343568
 20
-11.873315412593479
 30
0.0
 11
-2.9858399747611979
 21
-11.873313770482151
 31
0.0
  0
LINE
  5
BF
 67
     1
  8
0
 10
2.6024100252387958
 20
-3.472563770482139
 30
0.0
 11
2.6024100252388029
 21
-3.5975637704821599
 31
0.0
  0
LINE
  5
C0
 67
     1
  8
0
 10
-27.39008997272245
 20
-3.5975637704821182
 30
0.0
 11
-27.39008997272245
 21
-3.5350637704821182
 31
0.0
  0
LINE
  5
C1
 67
     1
  8
0
 10
-18.176840283743012
 20
7.2719354084622072
 30
0.0
 11
-18.14559028374298
 21
7.2719354084622001
 31
0.0
  0
LINE
  5
C2
 67
     1
  8
0
 10
-27.39008997272245
 20
-3.5350637704821182
 30
0.0
 11
-27.39008997272245
 21
-3.5038137704821319
 31
0.0
  0
ARC
  5
C3
 67
     1
  8
0
 10
-10.504120644614179
 20
5.3031862295178254
 30
0.0
 40
0.5
 50
225.3320603354218
 51
270.0
1001
GENIUS_GENODEF_13
1002
{
1000
HIER
1070
     0
1002
}
1002
{
1000
MANEDIT
1070
     0
1002
}
1002
{
1000
NOSEL
1070
     0
1002
}
1002
{
1000
BEHIND
1070
     0
1002
}
1002
{
1000
OTHER
1070
     0
1002
}
1002
{
1000
REACTOR
1002
}
1001
GENIUS_GENOBJ-N-FIL_13
1002
{
1000
OWNER
1000
GEN
1002
}
  0
CIRCLE
  5
C4
 67
     1
  8
0
 10
-12.393839973741811
 20
5.0635135502972783
 30
0.0
 40
0.0625
  0
CIRCLE
  5
C5
 67
     1
  8
0
 10
-26.39008997272245
 20
-3.5038137704821319
 30
0.0
 40
0.0625
  0
CIRCLE
  5
C6
 67
     1
  8
0
 10
-12.393839973741811
 20
-3.5038137704821319
 30
0.0
 40
0.0625
  0
CIRCLE
  5
C7
 67
     1
  8
0
 10
1.6024100252387961
 20
-3.5038137704821319
 30
0.0
 40
0.0625
  0
CIRCLE
  5
C8
 67
     1
  8
0
 10
-12.393839973741811
 20
-10.87331478329779
 30
0.0
 40
0.0625
  0
ENDSEC
  0
EOF
