  0
SECTION
  2
HEADER
  9
$ACADVER
  1
AC1009
  9
$INSBASE
 10
0.0
 20
0.0
 30
0.0
  9
$EXTMIN
 10
1.0000000000000000E+020
 20
1.0000000000000000E+020
 30
1.0000000000000000E+020
  9
$EXTMAX
 10
-1.0000000000000000E+020
 20
-1.0000000000000000E+020
 30
-1.0000000000000000E+020
  9
$LIMMIN
 10
0.0
 20
0.0
  9
$LIMMAX
 10
12.0
 20
9.0
  9
$ORTHOMODE
 70
     0
  9
$REGENMODE
 70
     1
  9
$FILLMODE
 70
     1
  9
$QTEXTMODE
 70
     0
  9
$MIRRTEXT
 70
     0
  9
$DRAGMODE
 70
     2
  9
$LTSCALE
 40
1.0
  9
$OSMODE
 70
   703
  9
$ATTMODE
 70
     1
  9
$TEXTSIZE
 40
0.2
  9
$TRACEWID
 40
0.05
  9
$TEXTSTYLE
  7
STANDARD
  9
$CLAYER
  8
0
  9
$CELTYPE
  6
BYLAYER
  9
$CECOLOR
 62
   256
  9
$DIMSCALE
 40
1.0
  9
$DIMASZ
 40
0.18
  9
$DIMEXO
 40
0.0625
  9
$DIMDLI
 40
0.38
  9
$DIMRND
 40
0.0
  9
$DIMDLE
 40
0.0
  9
$DIMEXE
 40
0.18
  9
$DIMTP
 40
0.0
  9
$DIMTM
 40
0.0
  9
$DIMTXT
 40
0.18
  9
$DIMCEN
 40
0.09
  9
$DIMTSZ
 40
0.0
  9
$DIMTOL
 70
     0
  9
$DIMLIM
 70
     0
  9
$DIMTIH
 70
     1
  9
$DIMTOH
 70
     1
  9
$DIMSE1
 70
     0
  9
$DIMSE2
 70
     0
  9
$DIMTAD
 70
     0
  9
$DIMZIN
 70
     0
  9
$DIMBLK
  1

  9
$DIMASO
 70
     1
  9
$DIMSHO
 70
     1
  9
$DIMPOST
  1

  9
$DIMAPOST
  1

  9
$DIMALT
 70
     0
  9
$DIMALTD
 70
     2
  9
$DIMALTF
 40
25.399999999999999
  9
$DIMLFAC
 40
1.0
  9
$DIMTOFL
 70
     0
  9
$DIMTVP
 40
0.0
  9
$DIMTIX
 70
     0
  9
$DIMSOXD
 70
     0
  9
$DIMSAH
 70
     0
  9
$DIMBLK1
  1

  9
$DIMBLK2
  1

  9
$DIMSTYLE
  2
STANDARD
  9
$DIMCLRD
 70
     0
  9
$DIMCLRE
 70
     0
  9
$DIMCLRT
 70
     0
  9
$DIMTFAC
 40
1.0
  9
$DIMGAP
 40
0.09
  9
$LUNITS
 70
     2
  9
$LUPREC
 70
     4
  9
$SKETCHINC
 40
0.1
  9
$FILLETRAD
 40
0.0
  9
$AUNITS
 70
     0
  9
$AUPREC
 70
     0
  9
$MENU
  1
.
  9
$ELEVATION
 40
0.0
  9
$PELEVATION
 40
0.0
  9
$THICKNESS
 40
0.0
  9
$LIMCHECK
 70
     0
  9
$BLIPMODE
 70
     0
  9
$CHAMFERA
 40
0.0
  9
$CHAMFERB
 40
0.0
  9
$SKPOLY
 70
     0
  9
$TDCREATE
 40
2457583.6054779859
  9
$TDUPDATE
 40
2457583.6066574659
  9
$TDINDWG
 40
0.0011804977
  9
$TDUSRTIMER
 40
0.0011804861
  9
$USRTIMER
 70
     1
  9
$ANGBASE
 50
0.0
  9
$ANGDIR
 70
     0
  9
$PDMODE
 70
     0
  9
$PDSIZE
 40
0.0
  9
$PLINEWID
 40
0.0
  9
$COORDS
 70
     1
  9
$SPLFRAME
 70
     0
  9
$SPLINETYPE
 70
     6
  9
$SPLINESEGS
 70
     8
  9
$ATTDIA
 70
     1
  9
$ATTREQ
 70
     1
  9
$HANDLING
 70
     1
  9
$HANDSEED
  5
11C
  9
$SURFTAB1
 70
     6
  9
$SURFTAB2
 70
     6
  9
$SURFTYPE
 70
     6
  9
$SURFU
 70
     6
  9
$SURFV
 70
     6
  9
$UCSNAME
  2

  9
$UCSORG
 10
0.0
 20
0.0
 30
0.0
  9
$UCSXDIR
 10
1.0
 20
0.0
 30
0.0
  9
$UCSYDIR
 10
0.0
 20
1.0
 30
0.0
  9
$PUCSNAME
  2

  9
$PUCSORG
 10
0.0
 20
0.0
 30
0.0
  9
$PUCSXDIR
 10
1.0
 20
0.0
 30
0.0
  9
$PUCSYDIR
 10
0.0
 20
1.0
 30
0.0
  9
$USERI1
 70
     0
  9
$USERI2
 70
     0
  9
$USERI3
 70
     0
  9
$USERI4
 70
     0
  9
$USERI5
 70
     0
  9
$USERR1
 40
0.0
  9
$USERR2
 40
0.0
  9
$USERR3
 40
0.0
  9
$USERR4
 40
0.0
  9
$USERR5
 40
0.0
  9
$WORLDVIEW
 70
     1
  9
$SHADEDGE
 70
     3
  9
$SHADEDIF
 70
    70
  9
$TILEMODE
 70
     0
  9
$MAXACTVP
 70
    64
  9
$PLIMCHECK
 70
     0
  9
$PEXTMIN
 10
-31.235197655605919
 20
-17.14951224078467
 30
0.0
  9
$PEXTMAX
 10
-0.4493615509120304
 20
0.4491544985411089
 30
0.0
  9
$PLIMMIN
 10
0.0
 20
0.0
  9
$PLIMMAX
 10
12.0
 20
9.0
  9
$UNITMODE
 70
     0
  9
$VISRETAIN
 70
     1
  9
$PLINEGEN
 70
     0
  9
$PSLTSCALE
 70
     1
  0
ENDSEC
  0
SECTION
  2
TABLES
  0
TABLE
  2
VPORT
 70
     1
  0
VPORT
  2
*ACTIVE
 70
     0
 10
0.0
 20
0.0
 11
1.0
 21
1.0
 12
10.100719424460429
 22
4.5
 13
0.0
 23
0.0
 14
0.5
 24
0.5
 15
0.5
 25
0.5
 16
0.0
 26
0.0
 36
1.0
 17
0.0
 27
0.0
 37
0.0
 40
9.0
 41
2.244604316546762
 42
50.0
 43
0.0
 44
0.0
 50
0.0
 51
0.0
 71
     0
 72
  1000
 73
     1
 74
     3
 75
     0
 76
     0
 77
     0
 78
     0
  0
ENDTAB
  0
TABLE
  2
LTYPE
 70
     1
  0
LTYPE
  2
CONTINUOUS
 70
     0
  3
Solid line
 72
    65
 73
     0
 40
0.0
  0
ENDTAB
  0
TABLE
  2
LAYER
 70
     2
  0
LAYER
  2
0
 70
     0
 62
     7
  6
CONTINUOUS
  0
LAYER
  2
TEMPLATE
 70
     0
 62
     7
  6
CONTINUOUS
  0
ENDTAB
  0
TABLE
  2
STYLE
 70
     2
  0
STYLE
  2
STANDARD
 70
     0
 40
0.0
 41
1.0
 50
0.0
 71
     0
 42
0.2
  3
txt
  4

  0
STYLE
  2
ANNOTATIVE
 70
     0
 40
0.0
 41
1.0
 50
0.0
 71
     0
 42
0.2
  3
txt
  4

  0
ENDTAB
  0
TABLE
  2
VIEW
 70
     1
  0
ENDTAB
  0
TABLE
  2
UCS
 70
     0
  0
ENDTAB
  0
TABLE
  2
APPID
 70
     6
  0
APPID
  2
ACAD
 70
     0
  0
APPID
  2
ACADANNOTATIVE
 70
     0
  0
APPID
  2
ACAD_NAV_VCDISPLAY
 70
     0
  0
APPID
  2
ACAD_PSEXT
 70
     0
  0
APPID
  2
AMACAD
 70
     0
  0
APPID
  2
ACAD_MLEADERVER
 70
     0
  0
ENDTAB
  0
TABLE
  2
DIMSTYLE
 70
     2
  0
DIMSTYLE
  2
STANDARD
 70
     0
  3

  4

  5

  6

  7

 40
1.0
 41
0.18
 42
0.0625
 43
0.38
 44
0.18
 45
0.0
 46
0.0
 47
0.0
 48
0.0
140
0.18
141
0.09
142
0.0
143
25.399999999999999
144
1.0
145
0.0
146
1.0
147
0.09
 71
     0
 72
     0
 73
     1
 74
     1
 75
     0
 76
     0
 77
     0
 78
     0
170
     0
171
     2
172
     0
173
     0
174
     0
175
     0
176
     0
177
     0
178
     0
  0
DIMSTYLE
  2
ANNOTATIVE
 70
     0
  3

  4

  5

  6

  7

 40
1.0
 41
0.18
 42
0.0625
 43
0.38
 44
0.18
 45
0.0
 46
0.0
 47
0.0
 48
0.0
140
0.18
141
0.09
142
0.0
143
25.399999999999999
144
1.0
145
0.0
146
1.0
147
0.09
 71
     0
 72
     0
 73
     1
 74
     1
 75
     0
 76
     0
 77
     0
 78
     0
170
     0
171
     2
172
     0
173
     0
174
     0
175
     0
176
     0
177
     0
178
     0
  0
ENDTAB
  0
ENDSEC
  0
SECTION
  2
BLOCKS
  0
BLOCK
  8
0
  2
$MODEL_SPACE
 70
     0
 10
0.0
 20
0.0
 30
0.0
  3
$MODEL_SPACE
  1

  0
ENDBLK
  5
72
  8
0
  0
BLOCK
 67
     1
  8
0
  2
$PAPER_SPACE
 70
     0
 10
0.0
 20
0.0
 30
0.0
  3
$PAPER_SPACE
  1

  0
ENDBLK
  5
6E
 67
     1
  8
0
  0
BLOCK
  8
0
  2
A$C56FD5426
 70
     0
 10
0.0
 20
0.0
 30
0.0
  3
A$C56FD5426
  1

  0
POINT
  5
80
  8
TEMPLATE
 10
42.661358841208909
 20
38.071766079835882
 30
0.0
  0
POINT
  5
81
  8
TEMPLATE
 10
42.661358841208909
 20
31.183575970291589
 30
0.0
  0
POINT
  5
82
  8
TEMPLATE
 10
57.114740152648231
 20
31.183575970291589
 30
0.0
  0
POINT
  5
83
  8
TEMPLATE
 10
42.661358841208887
 20
23.33495497029158
 30
0.0
  0
POINT
  5
84
  8
TEMPLATE
 10
28.207977529769579
 20
31.183575970291589
 30
0.0
  0
ARC
  5
85
  8
TEMPLATE
 10
35.154392529769602
 20
21.732769970291571
 30
0.0
 40
18.263306
 50
72.77461500000004
 51
107.48176600000031
  0
ARC
  5
86
  8
TEMPLATE
 10
30.475385529769611
 20
36.589169970291593
 30
0.0
 40
2.6875
 50
107.48176600000031
 51
169.06495100000001
  0
ARC
  5
87
  8
TEMPLATE
 10
58.454053529769567
 20
31.183575970291589
 30
0.0
 40
31.183575999999999
 50
169.06495100000001
 51
190.94298499999971
  0
ARC
  5
88
  8
TEMPLATE
 10
30.476134529769599
 20
25.774105970291579
 30
0.0
 40
2.6875
 50
190.94298499999971
 51
253.24014699999981
  0
ARC
  5
89
  8
TEMPLATE
 10
35.154392529769602
 20
41.308575970291578
 30
0.0
 40
18.91112
 50
253.24014699999981
 51
270.0
  0
LINE
  5
8A
  8
TEMPLATE
 10
35.154392529769602
 20
22.39745497029158
 30
0.0
 11
51.434668927912242
 21
22.39745497029158
 31
0.0
  0
ARC
  5
8B
  8
TEMPLATE
 10
50.745313634463457
 20
40.343754866857481
 30
0.0
 40
17.959488914522112
 50
272.19214355108983
 51
284.7686083988591
  0
ARC
  5
8C
  8
TEMPLATE
 10
54.554781715740852
 20
25.942046056761559
 30
0.0
 40
3.0625
 50
284.5104786455355
 51
349.62430865756949
  0
ARC
  5
8D
  8
TEMPLATE
 10
29.028156609670081
 20
30.696766016085629
 30
0.0
 40
29.028157024793391
 50
349.46552672271019
 51
10.534473277289869
  0
ARC
  5
8E
  8
TEMPLATE
 10
54.554781715740873
 20
35.451485975409682
 30
0.0
 40
3.0625
 50
10.37569134243053
 51
75.489521354464486
  0
ARC
  5
8F
  8
TEMPLATE
 10
50.745313634463457
 20
21.04977716531371
 30
0.0
 40
17.959488914522169
 50
75.231391601140928
 51
90.0
  0
LINE
  5
90
  8
TEMPLATE
 10
50.745313634463457
 20
39.009266079835882
 30
0.0
 11
41.564416120275517
 21
39.009266079835882
 31
0.0
  0
ARC
  5
91
  8
TEMPLATE
 10
41.564416120275517
 20
42.071766079835861
 30
0.0
 40
3.0625
 50
251.78306105917829
 51
270.0
  0
ARC
  5
92
  8
TEMPLATE
 10
39.766875529769621
 20
36.609957970291582
 30
0.0
 40
2.6875
 50
71.783061059178493
 51
72.77461500000004
  0
ENDBLK
  5
94
  8
0
  0
ENDSEC
  0
SECTION
  2
ENTITIES
  0
VIEWPORT
  5
A0
 67
     1
  8
0
 10
-15.842279603258969
 20
-8.3501788711217806
 30
0.0
 40
39.842578184839248
 41
17.75037938363031
 68
     1
 69
     1
1001
ACAD
1000
MVIEW
1002
{
1070
    16
1010
0.0
1020
0.0
1030
0.0
1010
0.0
1020
0.0
1030
1.0
1040
0.0
1040
17.75037938363031
1040
-15.842279603258969
1040
-8.3501788711217806
1040
50.0
1040
0.0
1040
0.0
1070
     0
1070
  1000
1070
     1
1070
     1
1070
     0
1070
     0
1070
     0
1070
     0
1040
0.0
1040
0.0
1040
0.0
1040
0.5
1040
0.5
1040
0.5
1040
0.5
1070
     0
1002
{
1002
}
1002
}
  0
POINT
  5
A5
 67
     1
  8
TEMPLATE
 10
-15.844316344166581
 20
-1.4751553919145901
 30
0.0
  0
POINT
  5
A6
 67
     1
  8
TEMPLATE
 10
-15.844316344166581
 20
-8.3633455014588804
 30
0.0
  0
POINT
  5
A7
 67
     1
  8
TEMPLATE
 10
-1.3909350327272629
 20
-8.3633455014588804
 30
0.0
  0
POINT
  5
A8
 67
     1
  8
TEMPLATE
 10
-15.8443163441666
 20
-16.211966501458878
 30
0.0
  0
POINT
  5
A9
 67
     1
  8
TEMPLATE
 10
-30.297697655605919
 20
-8.3633455014588804
 30
0.0
  0
ARC
  5
AA
 67
     1
  8
TEMPLATE
 10
-23.3512826556059
 20
-17.814151501458891
 30
0.0
 40
18.263306
 50
72.77461500000004
 51
107.48176600000031
  0
ARC
  5
AB
 67
     1
  8
TEMPLATE
 10
-28.030289655605891
 20
-2.9577515014588789
 30
0.0
 40
2.6875
 50
107.48176600000031
 51
169.06495100000001
  0
ARC
  5
AC
 67
     1
  8
TEMPLATE
 10
-0.0516216556059206
 20
-8.3633455014588804
 30
0.0
 40
31.183575999999999
 50
169.06495100000001
 51
190.94298499999971
  0
ARC
  5
AD
 67
     1
  8
TEMPLATE
 10
-28.029540655605899
 20
-13.772815501458879
 30
0.0
 40
2.6875
 50
190.94298499999971
 51
253.24014699999981
  0
ARC
  5
AE
 67
     1
  8
TEMPLATE
 10
-23.3512826556059
 20
1.7616544985411191
 30
0.0
 40
18.91112
 50
253.24014699999981
 51
270.0
  0
LINE
  5
AF
 67
     1
  8
TEMPLATE
 10
-23.3512826556059
 20
-17.149466501458889
 30
0.0
 11
-7.0710062574632531
 21
-17.149466501458889
 31
0.0
  0
ARC
  5
B0
 67
     1
  8
TEMPLATE
 10
-7.7603615509120374
 20
0.796833395107015
 30
0.0
 40
17.959488914522112
 50
272.19214355108983
 51
284.7686083988591
  0
ARC
  5
B1
 67
     1
  8
TEMPLATE
 10
-3.9508934696346349
 20
-13.604875414988911
 30
0.0
 40
3.0625
 50
284.5104786455355
 51
349.62430865756949
  0
ARC
  5
B2
 67
     1
  8
TEMPLATE
 10
-29.477518575705421
 20
-8.8501554556648401
 30
0.0
 40
29.028157024793391
 50
349.46552672271019
 51
10.534473277289869
  0
ARC
  5
B3
 67
     1
  8
TEMPLATE
 10
-3.9508934696346212
 20
-4.0954354963407829
 30
0.0
 40
3.0625
 50
10.37569134243053
 51
75.489521354464543
  0
ARC
  5
B4
 67
     1
  8
TEMPLATE
 10
-7.7603615509120374
 20
-18.497144306436759
 30
0.0
 40
17.959488914522169
 50
75.231391601140928
 51
90.0
  0
LINE
  5
B5
 67
     1
  8
TEMPLATE
 10
-7.7603615509120374
 20
-0.5376553919145906
 30
0.0
 11
-16.94125906509997
 21
-0.5376553919145906
 31
0.0
  0
ARC
  5
B6
 67
     1
  8
TEMPLATE
 10
-16.94125906509997
 20
2.5248446080854019
 30
0.0
 40
3.0625
 50
251.78306105917821
 51
270.0
  0
ARC
  5
B7
 67
     1
  8
TEMPLATE
 10
-18.73879965560587
 20
-2.93696350145889
 30
0.0
 40
2.6875
 50
71.783061059178493
 51
72.77461500000004
  0
ENDSEC
  0
EOF
