  0
SECTION
  2
HEADER
  9
$ACADVER
  1
AC1009
  9
$INSBASE
 10
0.0
 20
0.0
 30
0.0
  9
$EXTMIN
 10
7.0355896021085069
 20
3.6009718817412431
 30
0.0
  9
$EXTMAX
 10
23.76984157061235
 20
24.073412826623279
 30
0.0
  9
$LIMMIN
 10
0.0
 20
0.0
  9
$LIMMAX
 10
12.0
 20
9.0
  9
$ORTHOMODE
 70
     0
  9
$REGENMODE
 70
     1
  9
$FILLMODE
 70
     1
  9
$QTEXTMODE
 70
     0
  9
$MIRRTEXT
 70
     0
  9
$DRAGMODE
 70
     2
  9
$LTSCALE
 40
1.0
  9
$OSMODE
 70
   703
  9
$ATTMODE
 70
     1
  9
$TEXTSIZE
 40
0.2
  9
$TRACEWID
 40
0.05
  9
$TEXTSTYLE
  7
STANDARD
  9
$CLAYER
  8
0
  9
$CELTYPE
  6
BYLAYER
  9
$CECOLOR
 62
   256
  9
$DIMSCALE
 40
1.0
  9
$DIMASZ
 40
0.18
  9
$DIMEXO
 40
0.0625
  9
$DIMDLI
 40
0.38
  9
$DIMRND
 40
0.0
  9
$DIMDLE
 40
0.0
  9
$DIMEXE
 40
0.18
  9
$DIMTP
 40
0.0
  9
$DIMTM
 40
0.0
  9
$DIMTXT
 40
0.18
  9
$DIMCEN
 40
0.09
  9
$DIMTSZ
 40
0.0
  9
$DIMTOL
 70
     0
  9
$DIMLIM
 70
     0
  9
$DIMTIH
 70
     1
  9
$DIMTOH
 70
     1
  9
$DIMSE1
 70
     0
  9
$DIMSE2
 70
     0
  9
$DIMTAD
 70
     0
  9
$DIMZIN
 70
     0
  9
$DIMBLK
  1

  9
$DIMASO
 70
     1
  9
$DIMSHO
 70
     1
  9
$DIMPOST
  1

  9
$DIMAPOST
  1

  9
$DIMALT
 70
     0
  9
$DIMALTD
 70
     2
  9
$DIMALTF
 40
25.399999999999999
  9
$DIMLFAC
 40
1.0
  9
$DIMTOFL
 70
     0
  9
$DIMTVP
 40
0.0
  9
$DIMTIX
 70
     0
  9
$DIMSOXD
 70
     0
  9
$DIMSAH
 70
     0
  9
$DIMBLK1
  1

  9
$DIMBLK2
  1

  9
$DIMSTYLE
  2
STANDARD
  9
$DIMCLRD
 70
     0
  9
$DIMCLRE
 70
     0
  9
$DIMCLRT
 70
     0
  9
$DIMTFAC
 40
1.0
  9
$DIMGAP
 40
0.09
  9
$LUNITS
 70
     2
  9
$LUPREC
 70
     4
  9
$SKETCHINC
 40
0.1
  9
$FILLETRAD
 40
0.0
  9
$AUNITS
 70
     0
  9
$AUPREC
 70
     0
  9
$MENU
  1
.
  9
$ELEVATION
 40
0.0
  9
$PELEVATION
 40
0.0
  9
$THICKNESS
 40
0.0
  9
$LIMCHECK
 70
     0
  9
$BLIPMODE
 70
     0
  9
$CHAMFERA
 40
0.0
  9
$CHAMFERB
 40
0.0
  9
$SKPOLY
 70
     0
  9
$TDCREATE
 40
2454634.4710479402
  9
$TDUPDATE
 40
2454634.472202118
  9
$TDINDWG
 40
0.0010721412
  9
$TDUSRTIMER
 40
0.0010719676
  9
$USRTIMER
 70
     1
  9
$ANGBASE
 50
0.0
  9
$ANGDIR
 70
     0
  9
$PDMODE
 70
     0
  9
$PDSIZE
 40
0.0
  9
$PLINEWID
 40
0.0
  9
$COORDS
 70
     1
  9
$SPLFRAME
 70
     0
  9
$SPLINETYPE
 70
     6
  9
$SPLINESEGS
 70
     8
  9
$ATTDIA
 70
     0
  9
$ATTREQ
 70
     1
  9
$HANDLING
 70
     1
  9
$HANDSEED
  5
195
  9
$SURFTAB1
 70
     6
  9
$SURFTAB2
 70
     6
  9
$SURFTYPE
 70
     6
  9
$SURFU
 70
     6
  9
$SURFV
 70
     6
  9
$UCSNAME
  2

  9
$UCSORG
 10
0.0
 20
0.0
 30
0.0
  9
$UCSXDIR
 10
1.0
 20
0.0
 30
0.0
  9
$UCSYDIR
 10
0.0
 20
1.0
 30
0.0
  9
$PUCSNAME
  2

  9
$PUCSORG
 10
0.0
 20
0.0
 30
0.0
  9
$PUCSXDIR
 10
1.0
 20
0.0
 30
0.0
  9
$PUCSYDIR
 10
0.0
 20
1.0
 30
0.0
  9
$USERI1
 70
     0
  9
$USERI2
 70
     0
  9
$USERI3
 70
     0
  9
$USERI4
 70
     0
  9
$USERI5
 70
     0
  9
$USERR1
 40
0.0
  9
$USERR2
 40
0.0
  9
$USERR3
 40
0.0
  9
$USERR4
 40
0.0
  9
$USERR5
 40
0.0
  9
$WORLDVIEW
 70
     1
  9
$SHADEDGE
 70
     3
  9
$SHADEDIF
 70
    70
  9
$TILEMODE
 70
     1
  9
$MAXACTVP
 70
    64
  9
$PLIMCHECK
 70
     0
  9
$PEXTMIN
 10
1.0000000000000000E+020
 20
1.0000000000000000E+020
 30
1.0000000000000000E+020
  9
$PEXTMAX
 10
-1.0000000000000000E+020
 20
-1.0000000000000000E+020
 30
-1.0000000000000000E+020
  9
$PLIMMIN
 10
0.0
 20
0.0
  9
$PLIMMAX
 10
12.0
 20
9.0
  9
$UNITMODE
 70
     0
  9
$VISRETAIN
 70
     1
  9
$PLINEGEN
 70
     0
  9
$PSLTSCALE
 70
     1
  0
ENDSEC
  0
SECTION
  2
TABLES
  0
TABLE
  2
VPORT
 70
     1
  0
VPORT
  2
*ACTIVE
 70
     0
 10
0.0
 20
0.0
 11
1.0
 21
1.0
 12
11.606225711252019
 22
11.33906340211545
 13
0.0
 23
0.0
 14
0.5
 24
0.5
 15
0.5
 25
0.5
 16
0.0
 26
0.0
 36
1.0
 17
0.0
 27
0.0
 37
0.0
 40
25.84324483605414
 41
1.9654054054054051
 42
50.0
 43
0.0
 44
0.0
 50
0.0
 51
0.0
 71
     0
 72
  1000
 73
     1
 74
     3
 75
     0
 76
     0
 77
     0
 78
     0
  0
ENDTAB
  0
TABLE
  2
LTYPE
 70
     1
  0
LTYPE
  2
CONTINUOUS
 70
     0
  3
Solid line
 72
    65
 73
     0
 40
0.0
  0
ENDTAB
  0
TABLE
  2
LAYER
 70
     3
  0
LAYER
  2
0
 70
     0
 62
     7
  6
CONTINUOUS
  0
LAYER
  2
TEMPLATE
 70
     0
 62
     2
  6
CONTINUOUS
  0
ENDTAB
  0
TABLE
  2
STYLE
 70
     3
  0
STYLE
  2
STANDARD
 70
     0
 40
0.0
 41
1.0
 50
0.0
 71
     0
 42
0.2
  3
txt
  4

  0
ENDTAB
  0
TABLE
  2
VIEW
 70
     0
  0
ENDTAB
  0
TABLE
  2
UCS
 70
     0
  0
ENDTAB
  0
TABLE
  2
APPID
 70
     6
  0
APPID
  2
ACAD
 70
     0
  0
APPID
  2
ACADANNOTATIVE
 70
     0
  0
APPID
  2
ACAD_MLEADERVER
 70
     0
  0
APPID
  2
ACAD_PSEXT
 70
     0
  0
APPID
  2
ACAECLAYERSTANDARD
 70
     0
  0
APPID
  2
AMACAD
 70
     0
  0
ENDTAB
  0
TABLE
  2
DIMSTYLE
 70
     3
  0
DIMSTYLE
  2
STANDARD
 70
     0
  3

  4

  5

  6

  7

 40
1.0
 41
0.18
 42
0.0625
 43
0.38
 44
0.18
 45
0.0
 46
0.0
 47
0.0
 48
0.0
140
0.18
141
0.09
142
0.0
143
25.399999999999999
144
1.0
145
0.0
146
1.0
147
0.09
 71
     0
 72
     0
 73
     1
 74
     1
 75
     0
 76
     0
 77
     0
 78
     0
170
     0
171
     2
172
     0
173
     0
174
     0
175
     0
176
     0
177
     0
178
     0
  0
ENDTAB
  0
ENDSEC
  0
SECTION
  2
BLOCKS
  0
BLOCK
  8
0
  2
$MODEL_SPACE
 70
     0
 10
0.0
 20
0.0
 30
0.0
  3
$MODEL_SPACE
  1

  0
ENDBLK
  5
16A
  8
0
  0
BLOCK
 67
     1
  8
0
  2
$PAPER_SPACE
 70
     0
 10
0.0
 20
0.0
 30
0.0
  3
$PAPER_SPACE
  1

  0
ENDBLK
  5
166
 67
     1
  8
0
  0
ENDSEC
  0
SECTION
  2
ENTITIES
  0
LINE
  5
A7
  8
TEMPLATE
 62
     7
 10
21.869841570612301
 20
4.1009718817412582
 30
0.0
 11
8.9355896021085144
 21
4.1009718817412288
 31
0.0
  0
ARC
  5
A8
  8
TEMPLATE
 62
     7
 10
21.869841570612291
 20
5.5009718817412558
 30
0.0
 40
1.399999999999999
 50
270.00000000000011
 51
359.9999999999996
  0
LINE
  5
A9
  8
TEMPLATE
 62
     7
 10
21.86984157061238
 20
21.592605740009081
 30
0.0
 11
8.9355896021084984
 21
21.592605740008949
 31
0.0
  0
ARC
  5
AA
  8
TEMPLATE
 62
     7
 10
21.869841570612401
 20
20.192605740009078
 30
0.0
 40
1.399999999999999
 50
359.9999999999996
 51
90.000000000000469
  0
LINE
  5
AB
  8
TEMPLATE
 62
     7
 10
7.5355896021085078
 20
5.5009718817412292
 30
0.0
 11
7.5355896021085123
 21
20.19260574000895
 31
0.0
  0
ARC
  5
AC
  8
TEMPLATE
 62
     7
 10
8.9355896021085126
 20
20.19260574000895
 30
0.0
 40
1.399999999999999
 50
90.000000000000625
 51
180.0
  0
ARC
  5
AD
  8
TEMPLATE
 62
     7
 10
8.9355896021085126
 20
5.5009718817412292
 30
0.0
 40
1.399999999999999
 50
180.0
 51
270.00000000000011
  0
LINE
  5
AE
  8
TEMPLATE
 62
     7
 10
23.269841570612289
 20
5.5009718817412487
 30
0.0
 11
23.269841570612389
 21
20.192605740009078
 31
0.0
  0
CIRCLE
  5
AF
  8
TEMPLATE
 10
15.402715586360451
 20
22.69546007071774
 30
0.0
 40
0.7500000000000006
  0
CIRCLE
  5
B0
  8
TEMPLATE
 10
19.402715586360479
 20
22.69546007071774
 30
0.0
 40
0.7500000000000006
  0
CIRCLE
  5
B1
  8
TEMPLATE
 10
11.40271558636036
 20
22.69546007071774
 30
0.0
 40
0.7500000000000001
  0
LINE
  5
B2
  8
TEMPLATE
 10
8.9355896021085126
 20
21.592605740008949
 30
0.0
 11
8.9355896021085126
 21
24.073412826623269
 31
0.0
  0
LINE
  5
B3
  8
TEMPLATE
 10
10.435589602108511
 20
21.592605740008949
 30
0.0
 11
10.435589602108511
 21
24.073412826623269
 31
0.0
  0
LINE
  5
B4
  8
TEMPLATE
 10
8.9355896021085126
 20
24.073412826623269
 30
0.0
 11
10.435589602108511
 21
24.073412826623279
 31
0.0
  0
LINE
  5
B5
  8
TEMPLATE
 10
21.869841570612369
 20
21.592605740008949
 30
0.0
 11
21.869841570612369
 21
24.073412826623269
 31
0.0
  0
LINE
  5
B6
  8
TEMPLATE
 10
20.369841570612369
 20
21.592605740008949
 30
0.0
 11
20.369841570612369
 21
24.073412826623269
 31
0.0
  0
LINE
  5
B7
  8
TEMPLATE
 10
21.869841570612369
 20
24.073412826623269
 30
0.0
 11
20.369841570612369
 21
24.073412826623279
 31
0.0
  0
LINE
  5
B8
  8
TEMPLATE
 10
7.5355896021085078
 20
13.85294038567825
 30
0.0
 11
7.0355896021085069
 21
13.85294038567825
 31
0.0
  0
LINE
  5
B9
  8
TEMPLATE
 10
23.269841570612339
 20
13.8529403856783
 30
0.0
 11
23.769841570612339
 21
13.8529403856783
 31
0.0
  0
LINE
  5
BA
  8
TEMPLATE
 10
7.5355896021085078
 20
11.85294038567825
 30
0.0
 11
7.0355896021085069
 21
11.85294038567825
 31
0.0
  0
LINE
  5
BB
  8
TEMPLATE
 10
23.269841570612339
 20
11.8529403856783
 30
0.0
 11
23.769841570612339
 21
11.8529403856783
 31
0.0
  0
LINE
  5
BC
  8
TEMPLATE
 10
7.0355896021085069
 20
13.837192354182219
 30
0.0
 11
7.0355896021085069
 21
11.85294038567825
 31
0.0
  0
LINE
  5
BD
  8
TEMPLATE
 10
23.76984157061235
 20
13.8529403856783
 30
0.0
 11
23.769841570612339
 21
11.8529403856783
 31
0.0
  0
LINE
  5
BE
  8
TEMPLATE
 10
16.402715586360401
 20
4.1009718817412431
 30
0.0
 11
16.402715586360401
 21
3.6009718817412431
 31
0.0
  0
LINE
  5
BF
  8
TEMPLATE
 10
14.402715586360401
 20
4.1009718817412431
 30
0.0
 11
14.402715586360401
 21
3.6009718817412431
 31
0.0
  0
LINE
  5
C0
  8
TEMPLATE
 10
14.402715586360401
 20
3.6009718817412431
 30
0.0
 11
16.402715586360401
 21
3.6009718817412431
 31
0.0
  0
ENDSEC
  0
EOF
