  0
SECTION
  2
HEADER
  9
$ACADVER
  1
AC1009
  9
$INSBASE
 10
0.0
 20
0.0
 30
0.0
  9
$EXTMIN
 10
3.5657299999999998
 20
2.9749274688202849
 30
0.0
  9
$EXTMAX
 10
742.7229999999999563
 20
427.1503715623672974
 30
0.0
  9
$LIMMIN
 10
0.0
 20
0.0
  9
$LIMMAX
 10
12.0
 20
9.0
  9
$ORTHOMODE
 70
     0
  9
$REGENMODE
 70
     1
  9
$FILLMODE
 70
     1
  9
$QTEXTMODE
 70
     0
  9
$MIRRTEXT
 70
     0
  9
$DRAGMODE
 70
     2
  9
$LTSCALE
 40
1.0
  9
$OSMODE
 70
   695
  9
$ATTMODE
 70
     1
  9
$TEXTSIZE
 40
0.2
  9
$TRACEWID
 40
0.05
  9
$TEXTSTYLE
  7
STANDARD
  9
$CLAYER
  8
0
  9
$CELTYPE
  6
BYLAYER
  9
$CECOLOR
 62
   256
  9
$DIMSCALE
 40
1.0
  9
$DIMASZ
 40
0.18
  9
$DIMEXO
 40
0.0625
  9
$DIMDLI
 40
0.38
  9
$DIMRND
 40
0.0
  9
$DIMDLE
 40
0.0
  9
$DIMEXE
 40
0.18
  9
$DIMTP
 40
0.0
  9
$DIMTM
 40
0.0
  9
$DIMTXT
 40
0.18
  9
$DIMCEN
 40
0.09
  9
$DIMTSZ
 40
0.0
  9
$DIMTOL
 70
     0
  9
$DIMLIM
 70
     0
  9
$DIMTIH
 70
     1
  9
$DIMTOH
 70
     1
  9
$DIMSE1
 70
     0
  9
$DIMSE2
 70
     0
  9
$DIMTAD
 70
     0
  9
$DIMZIN
 70
     0
  9
$DIMBLK
  1

  9
$DIMASO
 70
     1
  9
$DIMSHO
 70
     1
  9
$DIMPOST
  1

  9
$DIMAPOST
  1

  9
$DIMALT
 70
     0
  9
$DIMALTD
 70
     2
  9
$DIMALTF
 40
25.3999999999999986
  9
$DIMLFAC
 40
1.0
  9
$DIMTOFL
 70
     0
  9
$DIMTVP
 40
0.0
  9
$DIMTIX
 70
     0
  9
$DIMSOXD
 70
     0
  9
$DIMSAH
 70
     0
  9
$DIMBLK1
  1

  9
$DIMBLK2
  1

  9
$DIMSTYLE
  2
STANDARD
  9
$DIMCLRD
 70
     0
  9
$DIMCLRE
 70
     0
  9
$DIMCLRT
 70
     0
  9
$DIMTFAC
 40
1.0
  9
$DIMGAP
 40
0.09
  9
$LUNITS
 70
     2
  9
$LUPREC
 70
     4
  9
$SKETCHINC
 40
0.1
  9
$FILLETRAD
 40
0.0
  9
$AUNITS
 70
     0
  9
$AUPREC
 70
     0
  9
$MENU
  1
.
  9
$ELEVATION
 40
0.0
  9
$PELEVATION
 40
0.0
  9
$THICKNESS
 40
0.0
  9
$LIMCHECK
 70
     0
  9
$BLIPMODE
 70
     0
  9
$CHAMFERA
 40
0.0
  9
$CHAMFERB
 40
0.0
  9
$SKPOLY
 70
     0
  9
$TDCREATE
 40
2459084.5387962958775461
  9
$TDUPDATE
 40
2459084.5633680559694767
  9
$TDINDWG
 40
0.0037384259
  9
$TDUSRTIMER
 40
0.0037384259
  9
$USRTIMER
 70
     1
  9
$ANGBASE
 50
0.0
  9
$ANGDIR
 70
     0
  9
$PDMODE
 70
     0
  9
$PDSIZE
 40
0.0
  9
$PLINEWID
 40
0.0
  9
$COORDS
 70
     1
  9
$SPLFRAME
 70
     0
  9
$SPLINETYPE
 70
     6
  9
$SPLINESEGS
 70
     8
  9
$ATTDIA
 70
     1
  9
$ATTREQ
 70
     1
  9
$HANDLING
 70
     1
  9
$HANDSEED
  5
A90
  9
$SURFTAB1
 70
     6
  9
$SURFTAB2
 70
     6
  9
$SURFTYPE
 70
     6
  9
$SURFU
 70
     6
  9
$SURFV
 70
     6
  9
$UCSNAME
  2

  9
$UCSORG
 10
0.0
 20
0.0
 30
0.0
  9
$UCSXDIR
 10
1.0
 20
0.0
 30
0.0
  9
$UCSYDIR
 10
0.0
 20
1.0
 30
0.0
  9
$PUCSNAME
  2

  9
$PUCSORG
 10
0.0
 20
0.0
 30
0.0
  9
$PUCSXDIR
 10
1.0
 20
0.0
 30
0.0
  9
$PUCSYDIR
 10
0.0
 20
1.0
 30
0.0
  9
$USERI1
 70
     0
  9
$USERI2
 70
     0
  9
$USERI3
 70
     0
  9
$USERI4
 70
     0
  9
$USERI5
 70
     0
  9
$USERR1
 40
0.0
  9
$USERR2
 40
0.0
  9
$USERR3
 40
0.0
  9
$USERR4
 40
0.0
  9
$USERR5
 40
0.0
  9
$WORLDVIEW
 70
     1
  9
$SHADEDGE
 70
     3
  9
$SHADEDIF
 70
    70
  9
$TILEMODE
 70
     0
  9
$MAXACTVP
 70
    64
  9
$PLIMCHECK
 70
     0
  9
$PEXTMIN
 10
2.6373207616222771
 20
-7.4395372942541371
 30
-0.0015258207003583
  9
$PEXTMAX
 10
741.822382331742574
 20
416.7617964138303819
 30
0.0000000349246037
  9
$PLIMMIN
 10
0.0
 20
0.0
  9
$PLIMMAX
 10
12.0
 20
9.0
  9
$UNITMODE
 70
     0
  9
$VISRETAIN
 70
     1
  9
$PLINEGEN
 70
     0
  9
$PSLTSCALE
 70
     1
  0
ENDSEC
  0
SECTION
  2
TABLES
  0
TABLE
  2
VPORT
 70
     1
  0
VPORT
  2
*ACTIVE
 70
     0
 10
0.0
 20
0.0
 11
1.0
 21
1.0
 12
156.8422502151526885
 22
118.6779827979135007
 13
0.0
 23
0.0
 14
0.5
 24
0.5
 15
0.5
 25
0.5
 16
0.0
 26
0.0
 36
1.0
 17
0.0
 27
0.0
 37
0.0
 40
1095.790860782424943
 41
2.3744292237442921
 42
50.0
 43
0.0
 44
0.0
 50
0.0
 51
0.0
 71
     0
 72
  1000
 73
     1
 74
     3
 75
     0
 76
     0
 77
     0
 78
     0
  0
ENDTAB
  0
TABLE
  2
LTYPE
 70
     1
  0
LTYPE
  2
CONTINUOUS
 70
     0
  3
Solid line
 72
    65
 73
     0
 40
0.0
  0
ENDTAB
  0
TABLE
  2
LAYER
 70
     2
  0
LAYER
  2
0
 70
     0
 62
     7
  6
CONTINUOUS
  0
LAYER
  2
VISIBLE_NARROW__ISO_
 70
     0
 62
     7
  6
CONTINUOUS
  0
ENDTAB
  0
TABLE
  2
STYLE
 70
     3
  0
STYLE
  2
STANDARD
 70
     0
 40
0.0
 41
1.0
 50
0.0
 71
     0
 42
0.2
  3
txt
  4

  0
ENDTAB
  0
TABLE
  2
VIEW
 70
     1
  0
ENDTAB
  0
TABLE
  2
UCS
 70
     0
  0
ENDTAB
  0
TABLE
  2
APPID
 70
     5
  0
APPID
  2
ACAD
 70
     0
  0
APPID
  2
ACADANNOTATIVE
 70
     0
  0
APPID
  2
ACAD_NAV_VCDISPLAY
 70
     0
  0
APPID
  2
ACAD_PSEXT
 70
     0
  0
APPID
  2
ACAD_MLEADERVER
 70
     0
  0
ENDTAB
  0
TABLE
  2
DIMSTYLE
 70
     3
  0
DIMSTYLE
  2
STANDARD
 70
     0
  3

  4

  5

  6

  7

 40
1.0
 41
0.18
 42
0.0625
 43
0.38
 44
0.18
 45
0.0
 46
0.0
 47
0.0
 48
0.0
140
0.18
141
0.09
142
0.0
143
25.3999999999999986
144
1.0
145
0.0
146
1.0
147
0.09
 71
     0
 72
     0
 73
     1
 74
     1
 75
     0
 76
     0
 77
     0
 78
     0
170
     0
171
     2
172
     0
173
     0
174
     0
175
     0
176
     0
177
     0
178
     0
  0
ENDTAB
  0
ENDSEC
  0
SECTION
  2
BLOCKS
  0
BLOCK
  8
0
  2
$MODEL_SPACE
 70
     0
 10
0.0
 20
0.0
 30
0.0
  3
$MODEL_SPACE
  1

  0
ENDBLK
  5
5A7
  8
0
  0
BLOCK
 67
     1
  8
0
  2
$PAPER_SPACE
 70
     0
 10
0.0
 20
0.0
 30
0.0
  3
$PAPER_SPACE
  1

  0
ENDBLK
  5
5A3
 67
     1
  8
0
  0
ENDSEC
  0
SECTION
  2
ENTITIES
  0
LINE
  5
8F
  8
VISIBLE_NARROW__ISO_
 10
323.1417748846720883
 20
182.8151307774128895
 30
0.0
 11
295.7867446921104033
 21
182.8151307774128895
 31
0.0
  0
POLYLINE
  5
90
  8
VISIBLE_NARROW__ISO_
 66
     1
 10
0.0
 20
0.0
 30
0.0
 70
     8
  0
VERTEX
  5
127
  8
VISIBLE_NARROW__ISO_
 10
295.7867442835287761
 20
182.8151161489732885
 30
0.0
 70
    32
  0
VERTEX
  5
128
  8
VISIBLE_NARROW__ISO_
 10
295.7760238110878959
 20
182.8150767788945075
 30
0.0
 70
    32
  0
VERTEX
  5
129
  8
VISIBLE_NARROW__ISO_
 10
295.7653033386470156
 20
182.814879928500801
 30
0.0
 70
    32
  0
VERTEX
  5
12A
  8
VISIBLE_NARROW__ISO_
 10
295.7545868032138969
 20
182.8145255977921124
 30
0.0
 70
    32
  0
VERTEX
  5
12B
  8
VISIBLE_NARROW__ISO_
 10
295.7438781417965856
 20
182.8140925269260038
 30
0.0
 70
    32
  0
VERTEX
  5
12C
  8
VISIBLE_NARROW__ISO_
 10
295.7331734173870927
 20
182.8135019757449129
 30
0.0
 70
    32
  0
VERTEX
  5
12D
  8
VISIBLE_NARROW__ISO_
 10
295.7224805040012825
 20
182.8127539442488967
 30
0.0
 70
    32
  0
VERTEX
  5
12E
  8
VISIBLE_NARROW__ISO_
 10
295.7117915276234044
 20
182.8119271725952899
 30
0.0
 70
    32
  0
VERTEX
  5
12F
  8
VISIBLE_NARROW__ISO_
 10
295.7011182992767999
 20
182.8109429206267862
 30
0.0
 70
    32
  0
VERTEX
  5
130
  8
VISIBLE_NARROW__ISO_
 10
295.6904608189619239
 20
182.8098011883433003
 30
0.0
 70
    32
  0
VERTEX
  5
131
  8
VISIBLE_NARROW__ISO_
 10
295.6798151496705032
 20
182.8085807159023943
 30
0.0
 70
    32
  0
VERTEX
  5
132
  8
VISIBLE_NARROW__ISO_
 10
295.6691852284106972
 20
182.8072027631465062
 30
0.0
 70
    32
  0
VERTEX
  5
133
  8
VISIBLE_NARROW__ISO_
 10
295.6585710551823922
 20
182.8057067001543885
 30
0.0
 70
    32
  0
VERTEX
  5
134
  8
VISIBLE_NARROW__ISO_
 10
295.647980504001282
 20
182.8040531568472886
 30
0.0
 70
    32
  0
VERTEX
  5
135
  8
VISIBLE_NARROW__ISO_
 10
295.637409637859605
 20
182.8022815033039876
 30
0.0
 70
    32
  0
VERTEX
  5
136
  8
VISIBLE_NARROW__ISO_
 10
295.6268623937651228
 20
182.8003917395244002
 30
0.0
 70
    32
  0
VERTEX
  5
137
  8
VISIBLE_NARROW__ISO_
 10
295.6163387717177784
 20
182.798383865508697
 30
0.0
 70
    32
  0
VERTEX
  5
138
  8
VISIBLE_NARROW__ISO_
 10
295.6058427087256746
 20
182.7962185111780116
 30
0.0
 70
    32
  0
VERTEX
  5
139
  8
VISIBLE_NARROW__ISO_
 10
295.5953702677808224
 20
182.7939350466110966
 30
0.0
 70
    32
  0
VERTEX
  5
13A
  8
VISIBLE_NARROW__ISO_
 10
295.5849293228989154
 20
182.7915334718078952
 30
0.0
 70
    32
  0
VERTEX
  5
13B
  8
VISIBLE_NARROW__ISO_
 10
295.5745198740800106
 20
182.788974416689797
 30
0.0
 70
    32
  0
VERTEX
  5
13C
  8
VISIBLE_NARROW__ISO_
 10
295.5641419213241079
 20
182.7863366214141934
 30
0.0
 70
    32
  0
VERTEX
  5
13D
  8
VISIBLE_NARROW__ISO_
 10
295.5537994016390826
 20
182.7835413458236076
 30
0.0
 70
    32
  0
VERTEX
  5
13E
  8
VISIBLE_NARROW__ISO_
 10
295.5434883780171162
 20
182.7806279599969059
 30
0.0
 70
    32
  0
VERTEX
  5
13F
  8
VISIBLE_NARROW__ISO_
 10
295.5332167244736752
 20
182.7775570938551937
 30
0.0
 70
    32
  0
VERTEX
  5
140
  8
VISIBLE_NARROW__ISO_
 10
295.5229844410092142
 20
182.7744074875558908
 30
0.0
 70
    32
  0
VERTEX
  5
141
  8
VISIBLE_NARROW__ISO_
 10
295.5127915276233921
 20
182.7711004009416911
 30
0.0
 70
    32
  0
VERTEX
  5
142
  8
VISIBLE_NARROW__ISO_
 10
295.5026379843163227
 20
182.7676752040914039
 30
0.0
 70
    32
  0
VERTEX
  5
143
  8
VISIBLE_NARROW__ISO_
 10
295.4925277480958243
 20
182.7641318970048019
 30
0.0
 70
    32
  0
VERTEX
  5
144
  8
VISIBLE_NARROW__ISO_
 10
295.4824647559697723
 20
182.7604704796819135
 30
0.0
 70
    32
  0
VERTEX
  5
145
  8
VISIBLE_NARROW__ISO_
 10
295.4724450709304051
 20
182.7566909521229093
 30
0.0
 70
    32
  0
VERTEX
  5
146
  8
VISIBLE_NARROW__ISO_
 10
295.4624726299854842
 20
182.7527539442488091
 30
0.0
 70
    32
  0
VERTEX
  5
147
  8
VISIBLE_NARROW__ISO_
 10
295.4525513701429986
 20
182.748738196217289
 30
0.0
 70
    32
  0
VERTEX
  5
148
  8
VISIBLE_NARROW__ISO_
 10
295.4426812914028915
 20
182.7445649678709003
 30
0.0
 70
    32
  0
VERTEX
  5
149
  8
VISIBLE_NARROW__ISO_
 10
295.4328584567571738
 20
182.7403129993668927
 30
0.0
 70
    32
  0
VERTEX
  5
14A
  8
VISIBLE_NARROW__ISO_
 10
295.4230946772295852
 20
182.7359035505479881
 30
0.0
 70
    32
  0
VERTEX
  5
14B
  8
VISIBLE_NARROW__ISO_
 10
295.4133820788043749
 20
182.7313759914929108
 30
0.0
 70
    32
  0
VERTEX
  5
14C
  8
VISIBLE_NARROW__ISO_
 10
295.4037285354972937
 20
182.7267696922802998
 30
0.0
 70
    32
  0
VERTEX
  5
14D
  8
VISIBLE_NARROW__ISO_
 10
295.394130110300523
 20
182.7220059127527918
 30
0.0
 70
    32
  0
VERTEX
  5
14E
  8
VISIBLE_NARROW__ISO_
 10
295.3845907402218245
 20
182.7171240229889975
 30
0.0
 70
    32
  0
VERTEX
  5
14F
  8
VISIBLE_NARROW__ISO_
 10
295.3751143622690165
 20
182.712124022989002
 30
0.0
 70
    32
  0
VERTEX
  5
150
  8
VISIBLE_NARROW__ISO_
 10
295.3657009764422128
 20
182.7070452828315013
 30
0.0
 70
    32
  0
VERTEX
  5
151
  8
VISIBLE_NARROW__ISO_
 10
295.3563505827414133
 20
182.7018090623591036
 30
0.0
 70
    32
  0
VERTEX
  5
152
  8
VISIBLE_NARROW__ISO_
 10
295.3470631811666181
 20
182.6964941017290869
 30
0.0
 70
    32
  0
VERTEX
  5
153
  8
VISIBLE_NARROW__ISO_
 10
295.3378427087257023
 20
182.691021660784287
 30
0.0
 70
    32
  0
VERTEX
  5
154
  8
VISIBLE_NARROW__ISO_
 10
295.3286891654186093
 20
182.6854704796818964
 30
0.0
 70
    32
  0
VERTEX
  5
155
  8
VISIBLE_NARROW__ISO_
 10
295.3196064882533278
 20
182.6798011883433048
 30
0.0
 70
    32
  0
VERTEX
  5
156
  8
VISIBLE_NARROW__ISO_
 10
295.3105946772295738
 20
182.6740137867685974
 30
0.0
 70
    32
  0
VERTEX
  5
157
  8
VISIBLE_NARROW__ISO_
 10
295.3016537323478019
 20
182.668147645036214
 30
0.0
 70
    32
  0
VERTEX
  5
158
  8
VISIBLE_NARROW__ISO_
 10
295.2927836536076143
 20
182.6621240229889906
 30
0.0
 70
    32
  0
VERTEX
  5
159
  8
VISIBLE_NARROW__ISO_
 10
295.2839923150249888
 20
182.6560216607842904
 30
0.0
 70
    32
  0
VERTEX
  5
15A
  8
VISIBLE_NARROW__ISO_
 10
295.2752757795918228
 20
182.6498011883433037
 30
0.0
 70
    32
  0
VERTEX
  5
15B
  8
VISIBLE_NARROW__ISO_
 10
295.2666340473084006
 20
182.6434626056662012
 30
0.0
 70
    32
  0
VERTEX
  5
15C
  8
VISIBLE_NARROW__ISO_
 10
295.2580710551824268
 20
182.6370452828315081
 30
0.0
 70
    32
  0
VERTEX
  5
15D
  8
VISIBLE_NARROW__ISO_
 10
295.2495907402217767
 20
182.6305098497606991
 30
0.0
 70
    32
  0
VERTEX
  5
15E
  8
VISIBLE_NARROW__ISO_
 10
295.2411891654185752
 20
182.6238563064536038
 30
0.0
 70
    32
  0
VERTEX
  5
15F
  8
VISIBLE_NARROW__ISO_
 10
295.232870267780811
 20
182.6171240229890032
 30
0.0
 70
    32
  0
VERTEX
  5
160
  8
VISIBLE_NARROW__ISO_
 10
295.2246340473084274
 20
182.6102736292882014
 30
0.0
 70
    32
  0
VERTEX
  5
161
  8
VISIBLE_NARROW__ISO_
 10
295.216484441009186
 20
182.603344495430008
 30
0.0
 70
    32
  0
VERTEX
  5
162
  8
VISIBLE_NARROW__ISO_
 10
295.2084175118753251
 20
182.5962972513354998
 30
0.0
 70
    32
  0
VERTEX
  5
163
  8
VISIBLE_NARROW__ISO_
 10
295.2004411339224816
 20
182.5891712670834863
 30
0.0
 70
    32
  0
VERTEX
  5
164
  8
VISIBLE_NARROW__ISO_
 10
295.1925513701430077
 20
182.5819271725953001
 30
0.0
 70
    32
  0
VERTEX
  5
165
  8
VISIBLE_NARROW__ISO_
 10
295.1847521575446081
 20
182.5746043379496086
 30
0.0
 70
    32
  0
VERTEX
  5
166
  8
VISIBLE_NARROW__ISO_
 10
295.1770434961272827
 20
182.5671633930678013
 30
0.0
 70
    32
  0
VERTEX
  5
167
  8
VISIBLE_NARROW__ISO_
 10
295.1694253858909747
 20
182.5596437080284034
 30
0.0
 70
    32
  0
VERTEX
  5
168
  8
VISIBLE_NARROW__ISO_
 10
295.1619001890405798
 20
182.5520059127528043
 30
0.0
 70
    32
  0
VERTEX
  5
169
  8
VISIBLE_NARROW__ISO_
 10
295.1544698740800072
 20
182.5442893773197
 30
0.0
 70
    32
  0
VERTEX
  5
16A
  8
VISIBLE_NARROW__ISO_
 10
295.1471348347100161
 20
182.536494101729204
 30
0.0
 70
    32
  0
VERTEX
  5
16B
  8
VISIBLE_NARROW__ISO_
 10
295.1398962520327132
 20
182.5286200859812027
 30
0.0
 70
    32
  0
VERTEX
  5
16C
  8
VISIBLE_NARROW__ISO_
 10
295.1327549134501282
 20
182.5206279599968866
 30
0.0
 70
    32
  0
VERTEX
  5
16D
  8
VISIBLE_NARROW__ISO_
 10
295.1257123937651272
 20
182.5125570938552073
 30
0.0
 70
    32
  0
VERTEX
  5
16E
  8
VISIBLE_NARROW__ISO_
 10
295.118769086678526
 20
182.504407487555909
 30
0.0
 70
    32
  0
VERTEX
  5
16F
  8
VISIBLE_NARROW__ISO_
 10
295.111926566993418
 20
182.4961791410991907
 30
0.0
 70
    32
  0
VERTEX
  5
170
  8
VISIBLE_NARROW__ISO_
 10
295.1051856221114917
 20
182.4878720544851092
 30
0.0
 70
    32
  0
VERTEX
  5
171
  8
VISIBLE_NARROW__ISO_
 10
295.0985474331350815
 20
182.4794862277134087
 30
0.0
 70
    32
  0
VERTEX
  5
172
  8
VISIBLE_NARROW__ISO_
 10
295.092012787465876
 20
182.470982290705507
 30
0.0
 70
    32
  0
VERTEX
  5
173
  8
VISIBLE_NARROW__ISO_
 10
295.0855828662059821
 20
182.4624389836189096
 30
0.0
 70
    32
  0
VERTEX
  5
174
  8
VISIBLE_NARROW__ISO_
 10
295.0792584567572021
 20
182.453777566296111
 30
0.0
 70
    32
  0
VERTEX
  5
175
  8
VISIBLE_NARROW__ISO_
 10
295.0730403465209974
 20
182.4450767788945029
 30
0.0
 70
    32
  0
VERTEX
  5
176
  8
VISIBLE_NARROW__ISO_
 10
295.0669301103005182
 20
182.4362578812566937
 30
0.0
 70
    32
  0
VERTEX
  5
177
  8
VISIBLE_NARROW__ISO_
 10
295.0609281417965803
 20
182.4273996135401887
 30
0.0
 70
    32
  0
VERTEX
  5
178
  8
VISIBLE_NARROW__ISO_
 10
295.0550352284107021
 20
182.4184626056662069
 30
0.0
 70
    32
  0
VERTEX
  5
179
  8
VISIBLE_NARROW__ISO_
 10
295.0492525512453881
 20
182.4094468576346912
 30
0.0
 70
    32
  0
VERTEX
  5
17A
  8
VISIBLE_NARROW__ISO_
 10
295.0435812914029157
 20
182.4003523694456987
 30
0.0
 70
    32
  0
VERTEX
  5
17B
  8
VISIBLE_NARROW__ISO_
 10
295.038021448883228
 20
182.3912185111780104
 30
0.0
 70
    32
  0
VERTEX
  5
17C
  8
VISIBLE_NARROW__ISO_
 10
295.0325745984894183
 20
182.3820059127527884
 30
0.0
 70
    32
  0
VERTEX
  5
17D
  8
VISIBLE_NARROW__ISO_
 10
295.0272411339224732
 20
182.3727145741700895
 30
0.0
 70
    32
  0
VERTEX
  5
17E
  8
VISIBLE_NARROW__ISO_
 10
295.0220222362847267
 20
182.3633444954299136
 30
0.0
 70
    32
  0
VERTEX
  5
17F
  8
VISIBLE_NARROW__ISO_
 10
295.016918299276881
 20
182.3539350466110989
 30
0.0
 70
    32
  0
VERTEX
  5
180
  8
VISIBLE_NARROW__ISO_
 10
295.0119301103005114
 20
182.3444468576346935
 30
0.0
 70
    32
  0
VERTEX
  5
181
  8
VISIBLE_NARROW__ISO_
 10
295.0070588504580087
 20
182.3349192985795924
 30
0.0
 70
    32
  0
VERTEX
  5
182
  8
VISIBLE_NARROW__ISO_
 10
295.0023045197493161
 20
182.3253129993669859
 30
0.0
 70
    32
  0
VERTEX
  5
183
  8
VISIBLE_NARROW__ISO_
 10
294.9976686929775838
 20
182.3156673300755983
 30
0.0
 70
    32
  0
VERTEX
  5
184
  8
VISIBLE_NARROW__ISO_
 10
294.9931517638437981
 20
182.3059822907056002
 30
0.0
 70
    32
  0
VERTEX
  5
185
  8
VISIBLE_NARROW__ISO_
 10
294.9887537323476749
 20
182.2961791410992021
 30
0.0
 70
    32
  0
VERTEX
  5
186
  8
VISIBLE_NARROW__ISO_
 10
294.9844761732927054
 20
182.2863759914928892
 30
0.0
 70
    32
  0
VERTEX
  5
187
  8
VISIBLE_NARROW__ISO_
 10
294.9803194803791939
 20
182.2764941017292131
 30
0.0
 70
    32
  0
VERTEX
  5
188
  8
VISIBLE_NARROW__ISO_
 10
294.9762840473084111
 20
182.2665728418866991
 30
0.0
 70
    32
  0
VERTEX
  5
189
  8
VISIBLE_NARROW__ISO_
 10
294.9723702677807751
 20
182.256612211965404
 30
0.0
 70
    32
  0
VERTEX
  5
18A
  8
VISIBLE_NARROW__ISO_
 10
294.9685797165997201
 20
182.2466122119654131
 30
0.0
 70
    32
  0
VERTEX
  5
18B
  8
VISIBLE_NARROW__ISO_
 10
294.9649116063635006
 20
182.2365334718078884
 30
0.0
 70
    32
  0
VERTEX
  5
18C
  8
VISIBLE_NARROW__ISO_
 10
294.9613675118753235
 20
182.2264153615716964
 30
0.0
 70
    32
  0
VERTEX
  5
18D
  8
VISIBLE_NARROW__ISO_
 10
294.9579478268358912
 20
182.2162578812566949
 30
0.0
 70
    32
  0
VERTEX
  5
18E
  8
VISIBLE_NARROW__ISO_
 10
294.9546525512453741
 20
182.2060610308629975
 30
0.0
 70
    32
  0
VERTEX
  5
18F
  8
VISIBLE_NARROW__ISO_
 10
294.9514828662059927
 20
182.1958248103906044
 30
0.0
 70
    32
  0
VERTEX
  5
190
  8
VISIBLE_NARROW__ISO_
 10
294.9484387717178038
 20
182.1855492198394018
 30
0.0
 70
    32
  0
VERTEX
  5
191
  8
VISIBLE_NARROW__ISO_
 10
294.9455206614816234
 20
182.1752736292881991
 30
0.0
 70
    32
  0
VERTEX
  5
192
  8
VISIBLE_NARROW__ISO_
 10
294.9427293228989129
 20
182.1649192985796049
 30
0.0
 70
    32
  0
VERTEX
  5
193
  8
VISIBLE_NARROW__ISO_
 10
294.9400647559697859
 20
182.1545255977920874
 30
0.0
 70
    32
  0
VERTEX
  5
194
  8
VISIBLE_NARROW__ISO_
 10
294.9375281417965766
 20
182.1441318970047121
 30
0.0
 70
    32
  0
VERTEX
  5
195
  8
VISIBLE_NARROW__ISO_
 10
294.9351186929775963
 20
182.1336988261386125
 30
0.0
 70
    32
  0
VERTEX
  5
196
  8
VISIBLE_NARROW__ISO_
 10
294.9328379843162793
 20
182.1232263851937034
 30
0.0
 70
    32
  0
VERTEX
  5
197
  8
VISIBLE_NARROW__ISO_
 10
294.9306852284108231
 20
182.1127145741700986
 30
0.0
 70
    32
  0
VERTEX
  5
198
  8
VISIBLE_NARROW__ISO_
 10
294.9286616063635051
 20
182.1022027631464937
 30
0.0
 70
    32
  0
VERTEX
  5
199
  8
VISIBLE_NARROW__ISO_
 10
294.9267671181744959
 20
182.0916515820441077
 30
0.0
 70
    32
  0
VERTEX
  5
19A
  8
VISIBLE_NARROW__ISO_
 10
294.9250021575446112
 20
182.0810610308629975
 30
0.0
 70
    32
  0
VERTEX
  5
19B
  8
VISIBLE_NARROW__ISO_
 10
294.9233667244736807
 20
182.0704704796818874
 30
0.0
 70
    32
  0
VERTEX
  5
19C
  8
VISIBLE_NARROW__ISO_
 10
294.9218612126626908
 20
182.0598799285008056
 30
0.0
 70
    32
  0
VERTEX
  5
19D
  8
VISIBLE_NARROW__ISO_
 10
294.920486015812287
 20
182.0492500072409996
 30
0.0
 70
    32
  0
VERTEX
  5
19E
  8
VISIBLE_NARROW__ISO_
 10
294.9192407402218237
 20
182.0385807159024125
 30
0.0
 70
    32
  0
VERTEX
  5
19F
  8
VISIBLE_NARROW__ISO_
 10
294.9181265669934078
 20
182.0279507946424928
 30
0.0
 70
    32
  0
VERTEX
  5
1A0
  8
VISIBLE_NARROW__ISO_
 10
294.9171427087256916
 20
182.0172815033039058
 30
0.0
 70
    32
  0
VERTEX
  5
1A1
  8
VISIBLE_NARROW__ISO_
 10
294.9162899528201933
 20
182.0065728418867081
 30
0.0
 70
    32
  0
VERTEX
  5
1A2
  8
VISIBLE_NARROW__ISO_
 10
294.915567905576097
 20
181.9958641804693116
 30
0.0
 70
    32
  0
VERTEX
  5
1A3
  8
VISIBLE_NARROW__ISO_
 10
294.9149773543949777
 20
181.9851948891306961
 30
0.0
 70
    32
  0
VERTEX
  5
1A4
  8
VISIBLE_NARROW__ISO_
 10
294.9145179055760764
 20
181.9744862277134132
 30
0.0
 70
    32
  0
VERTEX
  5
1A5
  8
VISIBLE_NARROW__ISO_
 10
294.9141895591193929
 20
181.9637381962174061
 30
0.0
 70
    32
  0
VERTEX
  5
1A6
  8
VISIBLE_NARROW__ISO_
 10
294.9139923150249274
 20
181.9530295348000095
 30
0.0
 70
    32
  0
VERTEX
  5
1A7
  8
VISIBLE_NARROW__ISO_
 10
294.913926566993382
 20
181.9423208733826982
 30
0.0
 70
    32
  0
SEQEND
  5
1A8
  8
VISIBLE_NARROW__ISO_
  0
LINE
  5
91
  8
VISIBLE_NARROW__ISO_
 10
294.9139267522855903
 20
181.9423128375881049
 30
0.0
 11
294.9139267522855903
 21
166.9881280836335975
 31
0.0
  0
POLYLINE
  5
92
  8
VISIBLE_NARROW__ISO_
 66
     1
 10
0.0
 20
0.0
 30
0.0
 70
     8
  0
VERTEX
  5
1A9
  8
VISIBLE_NARROW__ISO_
 10
294.913926566993382
 20
166.9881279599968877
 30
0.0
 70
    32
  0
VERTEX
  5
1AA
  8
VISIBLE_NARROW__ISO_
 10
294.9139923150249274
 20
166.9774074875558938
 30
0.0
 70
    32
  0
VERTEX
  5
1AB
  8
VISIBLE_NARROW__ISO_
 10
294.9141895591193929
 20
166.9666870151150135
 30
0.0
 70
    32
  0
VERTEX
  5
1AC
  8
VISIBLE_NARROW__ISO_
 10
294.9145179055760764
 20
166.9559704796818949
 30
0.0
 70
    32
  0
VERTEX
  5
1AD
  8
VISIBLE_NARROW__ISO_
 10
294.9149773543949777
 20
166.945261818264612
 30
0.0
 70
    32
  0
VERTEX
  5
1AE
  8
VISIBLE_NARROW__ISO_
 10
294.915567905576097
 20
166.9345570938552044
 30
0.0
 70
    32
  0
VERTEX
  5
1AF
  8
VISIBLE_NARROW__ISO_
 10
294.9162899528201933
 20
166.9238602434614052
 30
0.0
 70
    32
  0
VERTEX
  5
1B0
  8
VISIBLE_NARROW__ISO_
 10
294.9171427087256916
 20
166.9131752040912886
 30
0.0
 70
    32
  0
VERTEX
  5
1B1
  8
VISIBLE_NARROW__ISO_
 10
294.9181265669934078
 20
166.9025019757449115
 30
0.0
 70
    32
  0
VERTEX
  5
1B2
  8
VISIBLE_NARROW__ISO_
 10
294.9192407402218237
 20
166.8918405584221034
 30
0.0
 70
    32
  0
VERTEX
  5
1B3
  8
VISIBLE_NARROW__ISO_
 10
294.920486015812287
 20
166.8811948891307964
 30
0.0
 70
    32
  0
VERTEX
  5
1B4
  8
VISIBLE_NARROW__ISO_
 10
294.9218612126626908
 20
166.8705689048788088
 30
0.0
 70
    32
  0
VERTEX
  5
1B5
  8
VISIBLE_NARROW__ISO_
 10
294.9233667244736807
 20
166.8599547316503902
 30
0.0
 70
    32
  0
VERTEX
  5
1B6
  8
VISIBLE_NARROW__ISO_
 10
294.9250021575446112
 20
166.8493641804693084
 30
0.0
 70
    32
  0
VERTEX
  5
1B7
  8
VISIBLE_NARROW__ISO_
 10
294.9267671181744959
 20
166.838793314327603
 30
0.0
 70
    32
  0
VERTEX
  5
1B8
  8
VISIBLE_NARROW__ISO_
 10
294.9286616063635051
 20
166.8282460702330923
 30
0.0
 70
    32
  0
VERTEX
  5
1B9
  8
VISIBLE_NARROW__ISO_
 10
294.9306852284108231
 20
166.8177224481858048
 30
0.0
 70
    32
  0
VERTEX
  5
1BA
  8
VISIBLE_NARROW__ISO_
 10
294.9328379843162793
 20
166.8072263851937009
 30
0.0
 70
    32
  0
VERTEX
  5
1BB
  8
VISIBLE_NARROW__ISO_
 10
294.9351186929775963
 20
166.7967539442489056
 30
0.0
 70
    32
  0
VERTEX
  5
1BC
  8
VISIBLE_NARROW__ISO_
 10
294.9375281417965766
 20
166.7863129993669133
 30
0.0
 70
    32
  0
VERTEX
  5
1BD
  8
VISIBLE_NARROW__ISO_
 10
294.9400647559697859
 20
166.7759035505480085
 30
0.0
 70
    32
  0
VERTEX
  5
1BE
  8
VISIBLE_NARROW__ISO_
 10
294.9427293228989129
 20
166.7655255977921058
 30
0.0
 70
    32
  0
VERTEX
  5
1BF
  8
VISIBLE_NARROW__ISO_
 10
294.9455206614816234
 20
166.7551830781071089
 30
0.0
 70
    32
  0
VERTEX
  5
1C0
  8
VISIBLE_NARROW__ISO_
 10
294.9484387717178038
 20
166.7448720544851142
 30
0.0
 70
    32
  0
VERTEX
  5
1C1
  8
VISIBLE_NARROW__ISO_
 10
294.9514828662059927
 20
166.7346004009417868
 30
0.0
 70
    32
  0
VERTEX
  5
1C2
  8
VISIBLE_NARROW__ISO_
 10
294.9546525512453741
 20
166.7243681174772121
 30
0.0
 70
    32
  0
VERTEX
  5
1C3
  8
VISIBLE_NARROW__ISO_
 10
294.9579478268358912
 20
166.7141712670834863
 30
0.0
 70
    32
  0
VERTEX
  5
1C4
  8
VISIBLE_NARROW__ISO_
 10
294.9613675118753235
 20
166.7040216607842922
 30
0.0
 70
    32
  0
VERTEX
  5
1C5
  8
VISIBLE_NARROW__ISO_
 10
294.9649116063635006
 20
166.6939114245637938
 30
0.0
 70
    32
  0
VERTEX
  5
1C6
  8
VISIBLE_NARROW__ISO_
 10
294.9685797165997201
 20
166.6838484324377987
 30
0.0
 70
    32
  0
VERTEX
  5
1C7
  8
VISIBLE_NARROW__ISO_
 10
294.9723702677807751
 20
166.673828747398403
 30
0.0
 70
    32
  0
VERTEX
  5
1C8
  8
VISIBLE_NARROW__ISO_
 10
294.9762840473084111
 20
166.6638563064535958
 30
0.0
 70
    32
  0
VERTEX
  5
1C9
  8
VISIBLE_NARROW__ISO_
 10
294.9803194803791939
 20
166.6539350466111102
 30
0.0
 70
    32
  0
VERTEX
  5
1CA
  8
VISIBLE_NARROW__ISO_
 10
294.9844761732927054
 20
166.6440610308630141
 30
0.0
 70
    32
  0
VERTEX
  5
1CB
  8
VISIBLE_NARROW__ISO_
 10
294.9887537323476749
 20
166.6342421332252002
 30
0.0
 70
    32
  0
VERTEX
  5
1CC
  8
VISIBLE_NARROW__ISO_
 10
294.9931517638437981
 20
166.6244783536976968
 30
0.0
 70
    32
  0
VERTEX
  5
1CD
  8
VISIBLE_NARROW__ISO_
 10
294.9976686929775838
 20
166.6147657552724866
 30
0.0
 70
    32
  0
VERTEX
  5
1CE
  8
VISIBLE_NARROW__ISO_
 10
295.0023045197493161
 20
166.6051122119654053
 30
0.0
 70
    32
  0
VERTEX
  5
1CF
  8
VISIBLE_NARROW__ISO_
 10
295.0070588504580087
 20
166.5955137867684925
 30
0.0
 70
    32
  0
VERTEX
  5
1D0
  8
VISIBLE_NARROW__ISO_
 10
295.0119301103005114
 20
166.585974416689794
 30
0.0
 70
    32
  0
VERTEX
  5
1D1
  8
VISIBLE_NARROW__ISO_
 10
295.016918299276881
 20
166.576498038736986
 30
0.0
 70
    32
  0
VERTEX
  5
1D2
  8
VISIBLE_NARROW__ISO_
 10
295.0220222362847267
 20
166.567084652910296
 30
0.0
 70
    32
  0
VERTEX
  5
1D3
  8
VISIBLE_NARROW__ISO_
 10
295.0272411339224732
 20
166.5577342592094965
 30
0.0
 70
    32
  0
VERTEX
  5
1D4
  8
VISIBLE_NARROW__ISO_
 10
295.0325745984894183
 20
166.5484468576347012
 30
0.0
 70
    32
  0
VERTEX
  5
1D5
  8
VISIBLE_NARROW__ISO_
 10
295.038021448883228
 20
166.5392263851937003
 30
0.0
 70
    32
  0
VERTEX
  5
1D6
  8
VISIBLE_NARROW__ISO_
 10
295.0435812914029157
 20
166.5300728418866072
 30
0.0
 70
    32
  0
VERTEX
  5
1D7
  8
VISIBLE_NARROW__ISO_
 10
295.0492525512453881
 20
166.5209901647212973
 30
0.0
 70
    32
  0
VERTEX
  5
1D8
  8
VISIBLE_NARROW__ISO_
 10
295.0550352284107021
 20
166.5119783536977138
 30
0.0
 70
    32
  0
VERTEX
  5
1D9
  8
VISIBLE_NARROW__ISO_
 10
295.0609281417965803
 20
166.5030374088157998
 30
0.0
 70
    32
  0
VERTEX
  5
1DA
  8
VISIBLE_NARROW__ISO_
 10
295.0669301103005182
 20
166.4941673300756122
 30
0.0
 70
    32
  0
VERTEX
  5
1DB
  8
VISIBLE_NARROW__ISO_
 10
295.0730403465209974
 20
166.4853759914929014
 30
0.0
 70
    32
  0
VERTEX
  5
1DC
  8
VISIBLE_NARROW__ISO_
 10
295.0792584567572021
 20
166.4766594560597923
 30
0.0
 70
    32
  0
VERTEX
  5
1DD
  8
VISIBLE_NARROW__ISO_
 10
295.0855828662059821
 20
166.4680177237763985
 30
0.0
 70
    32
  0
VERTEX
  5
1DE
  8
VISIBLE_NARROW__ISO_
 10
295.092012787465876
 20
166.4594547316503963
 30
0.0
 70
    32
  0
VERTEX
  5
1DF
  8
VISIBLE_NARROW__ISO_
 10
295.0985474331350815
 20
166.4509744166898031
 30
0.0
 70
    32
  0
VERTEX
  5
1E0
  8
VISIBLE_NARROW__ISO_
 10
295.1051856221114917
 20
166.4425728418866015
 30
0.0
 70
    32
  0
VERTEX
  5
1E1
  8
VISIBLE_NARROW__ISO_
 10
295.111926566993418
 20
166.4342539442488089
 30
0.0
 70
    32
  0
VERTEX
  5
1E2
  8
VISIBLE_NARROW__ISO_
 10
295.118769086678526
 20
166.4260177237763969
 30
0.0
 70
    32
  0
VERTEX
  5
1E3
  8
VISIBLE_NARROW__ISO_
 10
295.1257123937651272
 20
166.4178681174772123
 30
0.0
 70
    32
  0
VERTEX
  5
1E4
  8
VISIBLE_NARROW__ISO_
 10
295.1327549134501282
 20
166.4098011883432946
 30
0.0
 70
    32
  0
VERTEX
  5
1E5
  8
VISIBLE_NARROW__ISO_
 10
295.1398962520327132
 20
166.4018248103905933
 30
0.0
 70
    32
  0
VERTEX
  5
1E6
  8
VISIBLE_NARROW__ISO_
 10
295.1471348347100161
 20
166.3939350466110056
 30
0.0
 70
    32
  0
VERTEX
  5
1E7
  8
VISIBLE_NARROW__ISO_
 10
295.1544698740800072
 20
166.3861342592095127
 30
0.0
 70
    32
  0
VERTEX
  5
1E8
  8
VISIBLE_NARROW__ISO_
 10
295.1619001890405798
 20
166.3784252040913998
 30
0.0
 70
    32
  0
VERTEX
  5
1E9
  8
VISIBLE_NARROW__ISO_
 10
295.1694253858909747
 20
166.3708078812566953
 30
0.0
 70
    32
  0
VERTEX
  5
1EA
  8
VISIBLE_NARROW__ISO_
 10
295.1770434961272827
 20
166.3632834718079039
 30
0.0
 70
    32
  0
VERTEX
  5
1EB
  8
VISIBLE_NARROW__ISO_
 10
295.1847521575446081
 20
166.3558531568473029
 30
0.0
 70
    32
  0
VERTEX
  5
1EC
  8
VISIBLE_NARROW__ISO_
 10
295.1925513701430077
 20
166.3485181174771981
 30
0.0
 70
    32
  0
VERTEX
  5
1ED
  8
VISIBLE_NARROW__ISO_
 10
295.2004411339224816
 20
166.3412795348000088
 30
0.0
 70
    32
  0
VERTEX
  5
1EE
  8
VISIBLE_NARROW__ISO_
 10
295.2084175118753251
 20
166.3341381962173102
 30
0.0
 70
    32
  0
VERTEX
  5
1EF
  8
VISIBLE_NARROW__ISO_
 10
295.216484441009186
 20
166.3270956765323092
 30
0.0
 70
    32
  0
VERTEX
  5
1F0
  8
VISIBLE_NARROW__ISO_
 10
295.2246340473084274
 20
166.320152369445708
 30
0.0
 70
    32
  0
VERTEX
  5
1F1
  8
VISIBLE_NARROW__ISO_
 10
295.232870267780811
 20
166.3133098497607136
 30
0.0
 70
    32
  0
VERTEX
  5
1F2
  8
VISIBLE_NARROW__ISO_
 10
295.2411891654185752
 20
166.3065689048787874
 30
0.0
 70
    32
  0
VERTEX
  5
1F3
  8
VISIBLE_NARROW__ISO_
 10
295.2495907402217767
 20
166.2999307159024056
 30
0.0
 70
    32
  0
VERTEX
  5
1F4
  8
VISIBLE_NARROW__ISO_
 10
295.2580710551824268
 20
166.2933960702330864
 30
0.0
 70
    32
  0
VERTEX
  5
1F5
  8
VISIBLE_NARROW__ISO_
 10
295.2666340473084006
 20
166.2869661489733062
 30
0.0
 70
    32
  0
VERTEX
  5
1F6
  8
VISIBLE_NARROW__ISO_
 10
295.2752757795918228
 20
166.2806417395244978
 30
0.0
 70
    32
  0
VERTEX
  5
1F7
  8
VISIBLE_NARROW__ISO_
 10
295.2839923150249888
 20
166.2744240229889954
 30
0.0
 70
    32
  0
VERTEX
  5
1F8
  8
VISIBLE_NARROW__ISO_
 10
295.2927836536076143
 20
166.2683133930677002
 30
0.0
 70
    32
  0
VERTEX
  5
1F9
  8
VISIBLE_NARROW__ISO_
 10
295.3016537323478019
 20
166.2623114245637908
 30
0.0
 70
    32
  0
VERTEX
  5
1FA
  8
VISIBLE_NARROW__ISO_
 10
295.3105946772295738
 20
166.2564185111779977
 30
0.0
 70
    32
  0
VERTEX
  5
1FB
  8
VISIBLE_NARROW__ISO_
 10
295.3196064882533278
 20
166.250636227713386
 30
0.0
 70
    32
  0
VERTEX
  5
1FC
  8
VISIBLE_NARROW__ISO_
 10
295.3286891654186093
 20
166.2449645741700976
 30
0.0
 70
    32
  0
VERTEX
  5
1FD
  8
VISIBLE_NARROW__ISO_
 10
295.3378427087257023
 20
166.23940473165041
 30
0.0
 70
    32
  0
VERTEX
  5
1FE
  8
VISIBLE_NARROW__ISO_
 10
295.3470631811666181
 20
166.233957881256714
 30
0.0
 70
    32
  0
VERTEX
  5
1FF
  8
VISIBLE_NARROW__ISO_
 10
295.3563505827414133
 20
166.2286244166897973
 30
0.0
 70
    32
  0
VERTEX
  5
200
  8
VISIBLE_NARROW__ISO_
 10
295.3657009764422128
 20
166.2234055190519939
 30
0.0
 70
    32
  0
VERTEX
  5
201
  8
VISIBLE_NARROW__ISO_
 10
295.3751143622690165
 20
166.2183015820440914
 30
0.0
 70
    32
  0
VERTEX
  5
202
  8
VISIBLE_NARROW__ISO_
 10
295.3845907402218245
 20
166.2133133930676934
 30
0.0
 70
    32
  0
VERTEX
  5
203
  8
VISIBLE_NARROW__ISO_
 10
295.394130110300523
 20
166.2084421332251907
 30
0.0
 70
    32
  0
VERTEX
  5
204
  8
VISIBLE_NARROW__ISO_
 10
295.4037285354972937
 20
166.2036881962173993
 30
0.0
 70
    32
  0
VERTEX
  5
205
  8
VISIBLE_NARROW__ISO_
 10
295.4133820788043749
 20
166.1990519757449078
 30
0.0
 70
    32
  0
VERTEX
  5
206
  8
VISIBLE_NARROW__ISO_
 10
295.4230946772295852
 20
166.1945350466110085
 30
0.0
 70
    32
  0
VERTEX
  5
207
  8
VISIBLE_NARROW__ISO_
 10
295.4328584567571738
 20
166.1901374088157866
 30
0.0
 70
    32
  0
VERTEX
  5
208
  8
VISIBLE_NARROW__ISO_
 10
295.4426812914028915
 20
166.1858594560598874
 30
0.0
 70
    32
  0
VERTEX
  5
209
  8
VISIBLE_NARROW__ISO_
 10
295.4525513701429986
 20
166.1817027631464896
 30
0.0
 70
    32
  0
VERTEX
  5
20A
  8
VISIBLE_NARROW__ISO_
 10
295.4624726299854842
 20
166.1776673300755931
 30
0.0
 70
    32
  0
VERTEX
  5
20B
  8
VISIBLE_NARROW__ISO_
 10
295.4724450709304051
 20
166.1737539442488014
 30
0.0
 70
    32
  0
VERTEX
  5
20C
  8
VISIBLE_NARROW__ISO_
 10
295.4824647559697723
 20
166.1699629993669873
 30
0.0
 70
    32
  0
VERTEX
  5
20D
  8
VISIBLE_NARROW__ISO_
 10
295.4925277480958243
 20
166.1662952828314985
 30
0.0
 70
    32
  0
VERTEX
  5
20E
  8
VISIBLE_NARROW__ISO_
 10
295.5026379843163227
 20
166.1627511883432931
 30
0.0
 70
    32
  0
VERTEX
  5
20F
  8
VISIBLE_NARROW__ISO_
 10
295.5127915276233921
 20
166.1593311096031869
 30
0.0
 70
    32
  0
VERTEX
  5
210
  8
VISIBLE_NARROW__ISO_
 10
295.5229844410092142
 20
166.1560362277134004
 30
0.0
 70
    32
  0
VERTEX
  5
211
  8
VISIBLE_NARROW__ISO_
 10
295.5332167244736752
 20
166.1528661489732883
 30
0.0
 70
    32
  0
VERTEX
  5
212
  8
VISIBLE_NARROW__ISO_
 10
295.5434883780171162
 20
166.1498220544850994
 30
0.0
 70
    32
  0
VERTEX
  5
213
  8
VISIBLE_NARROW__ISO_
 10
295.5537994016390826
 20
166.1469039442488054
 30
0.0
 70
    32
  0
VERTEX
  5
214
  8
VISIBLE_NARROW__ISO_
 10
295.5641419213241079
 20
166.1441126056662085
 30
0.0
 70
    32
  0
VERTEX
  5
215
  8
VISIBLE_NARROW__ISO_
 10
295.5745198740800106
 20
166.1414484324378122
 30
0.0
 70
    32
  0
VERTEX
  5
216
  8
VISIBLE_NARROW__ISO_
 10
295.5849293228989154
 20
166.138911424563787
 30
0.0
 70
    32
  0
VERTEX
  5
217
  8
VISIBLE_NARROW__ISO_
 10
295.5953702677808224
 20
166.1365023694457079
 30
0.0
 70
    32
  0
VERTEX
  5
218
  8
VISIBLE_NARROW__ISO_
 10
295.6058427087256746
 20
166.1342212670834897
 30
0.0
 70
    32
  0
VERTEX
  5
219
  8
VISIBLE_NARROW__ISO_
 10
295.6163387717177784
 20
166.1320689048787926
 30
0.0
 70
    32
  0
VERTEX
  5
21A
  8
VISIBLE_NARROW__ISO_
 10
295.6268623937651228
 20
166.1300452828315031
 30
0.0
 70
    32
  0
VERTEX
  5
21B
  8
VISIBLE_NARROW__ISO_
 10
295.637409637859605
 20
166.1281504009417915
 30
0.0
 70
    32
  0
VERTEX
  5
21C
  8
VISIBLE_NARROW__ISO_
 10
295.647980504001282
 20
166.1263854403117932
 30
0.0
 70
    32
  0
VERTEX
  5
21D
  8
VISIBLE_NARROW__ISO_
 10
295.6585710551823922
 20
166.1247500072410048
 30
0.0
 70
    32
  0
VERTEX
  5
21E
  8
VISIBLE_NARROW__ISO_
 10
295.6691852284106972
 20
166.1232444954299012
 30
0.0
 70
    32
  0
VERTEX
  5
21F
  8
VISIBLE_NARROW__ISO_
 10
295.6798151496705032
 20
166.121869298579611
 30
0.0
 70
    32
  0
VERTEX
  5
220
  8
VISIBLE_NARROW__ISO_
 10
295.6904608189619239
 20
166.1206244166897932
 30
0.0
 70
    32
  0
VERTEX
  5
221
  8
VISIBLE_NARROW__ISO_
 10
295.7011182992767999
 20
166.1195098497605898
 30
0.0
 70
    32
  0
VERTEX
  5
222
  8
VISIBLE_NARROW__ISO_
 10
295.7117915276234044
 20
166.118525991492902
 30
0.0
 70
    32
  0
VERTEX
  5
223
  8
VISIBLE_NARROW__ISO_
 10
295.7224805040012825
 20
166.1176732355874037
 30
0.0
 70
    32
  0
VERTEX
  5
224
  8
VISIBLE_NARROW__ISO_
 10
295.7331734173870927
 20
166.1169515820440949
 30
0.0
 70
    32
  0
VERTEX
  5
225
  8
VISIBLE_NARROW__ISO_
 10
295.7438781417965856
 20
166.1163606371621881
 30
0.0
 70
    32
  0
VERTEX
  5
226
  8
VISIBLE_NARROW__ISO_
 10
295.7545868032138969
 20
166.1159011883432868
 30
0.0
 70
    32
  0
VERTEX
  5
227
  8
VISIBLE_NARROW__ISO_
 10
295.7653033386470156
 20
166.1155728418866033
 30
0.0
 70
    32
  0
VERTEX
  5
228
  8
VISIBLE_NARROW__ISO_
 10
295.7760238110878959
 20
166.1153759914928969
 30
0.0
 70
    32
  0
VERTEX
  5
229
  8
VISIBLE_NARROW__ISO_
 10
295.7867442835287761
 20
166.1153102434614084
 30
0.0
 70
    32
  0
SEQEND
  5
22A
  8
VISIBLE_NARROW__ISO_
  0
LINE
  5
93
  8
VISIBLE_NARROW__ISO_
 10
295.7867446921104033
 20
166.1153101438086992
 30
0.0
 11
323.141774884672202
 21
166.1153101438086992
 31
0.0
  0
POLYLINE
  5
94
  8
VISIBLE_NARROW__ISO_
 66
     1
 10
0.0
 20
0.0
 30
0.0
 70
     8
  0
VERTEX
  5
22B
  8
VISIBLE_NARROW__ISO_
 10
324.014606488253321
 20
181.9423208733826982
 30
0.0
 70
    32
  0
VERTEX
  5
22C
  8
VISIBLE_NARROW__ISO_
 10
324.0145277480958157
 20
181.9530295348000095
 30
0.0
 70
    32
  0
VERTEX
  5
22D
  8
VISIBLE_NARROW__ISO_
 10
324.0143308977021093
 20
181.9637381962174061
 30
0.0
 70
    32
  0
VERTEX
  5
22E
  8
VISIBLE_NARROW__ISO_
 10
324.014015937072088
 20
181.9744862277134132
 30
0.0
 70
    32
  0
VERTEX
  5
22F
  8
VISIBLE_NARROW__ISO_
 10
324.0135434961272836
 20
181.9851948891306961
 30
0.0
 70
    32
  0
VERTEX
  5
230
  8
VISIBLE_NARROW__ISO_
 10
324.0129529449462211
 20
181.9958641804693116
 30
0.0
 70
    32
  0
VERTEX
  5
231
  8
VISIBLE_NARROW__ISO_
 10
324.012244283528787
 20
182.0065728418867081
 30
0.0
 70
    32
  0
VERTEX
  5
232
  8
VISIBLE_NARROW__ISO_
 10
324.0113781417966266
 20
182.0172815033039058
 30
0.0
 70
    32
  0
VERTEX
  5
233
  8
VISIBLE_NARROW__ISO_
 10
324.0103938898280944
 20
182.0279507946424928
 30
0.0
 70
    32
  0
VERTEX
  5
234
  8
VISIBLE_NARROW__ISO_
 10
324.009291527623418
 20
182.0385807159024125
 30
0.0
 70
    32
  0
VERTEX
  5
235
  8
VISIBLE_NARROW__ISO_
 10
324.0080316851036741
 20
182.0492500072409996
 30
0.0
 70
    32
  0
VERTEX
  5
236
  8
VISIBLE_NARROW__ISO_
 10
324.006653732347786
 20
182.0598799285008056
 30
0.0
 70
    32
  0
VERTEX
  5
237
  8
VISIBLE_NARROW__ISO_
 10
324.005157669355583
 20
182.0704704796818874
 30
0.0
 70
    32
  0
VERTEX
  5
238
  8
VISIBLE_NARROW__ISO_
 10
324.0035041260484832
 20
182.0810610308629975
 30
0.0
 70
    32
  0
VERTEX
  5
239
  8
VISIBLE_NARROW__ISO_
 10
324.0017718425839917
 20
182.0916515820441077
 30
0.0
 70
    32
  0
VERTEX
  5
23A
  8
VISIBLE_NARROW__ISO_
 10
323.99984270872568
 20
182.1022027631464937
 30
0.0
 70
    32
  0
VERTEX
  5
23B
  8
VISIBLE_NARROW__ISO_
 10
323.9978348347099768
 20
182.1127145741700986
 30
0.0
 70
    32
  0
VERTEX
  5
23C
  8
VISIBLE_NARROW__ISO_
 10
323.9956694803793198
 20
182.1232263851937034
 30
0.0
 70
    32
  0
VERTEX
  5
23D
  8
VISIBLE_NARROW__ISO_
 10
323.9933860158124048
 20
182.1336988261386125
 30
0.0
 70
    32
  0
VERTEX
  5
23E
  8
VISIBLE_NARROW__ISO_
 10
323.990984441009175
 20
182.1441318970047121
 30
0.0
 70
    32
  0
VERTEX
  5
23F
  8
VISIBLE_NARROW__ISO_
 10
323.988464755969801
 20
182.1545255977920874
 30
0.0
 70
    32
  0
VERTEX
  5
240
  8
VISIBLE_NARROW__ISO_
 10
323.9857875906154732
 20
182.1649192985796049
 30
0.0
 70
    32
  0
VERTEX
  5
241
  8
VISIBLE_NARROW__ISO_
 10
323.9829923150248874
 20
182.1752736292881991
 30
0.0
 70
    32
  0
VERTEX
  5
242
  8
VISIBLE_NARROW__ISO_
 10
323.9800789291982142
 20
182.1855492198394018
 30
0.0
 70
    32
  0
VERTEX
  5
243
  8
VISIBLE_NARROW__ISO_
 10
323.9770474331352261
 20
182.1958248103906044
 30
0.0
 70
    32
  0
VERTEX
  5
244
  8
VISIBLE_NARROW__ISO_
 10
323.9738584567572275
 20
182.2060610308629975
 30
0.0
 70
    32
  0
VERTEX
  5
245
  8
VISIBLE_NARROW__ISO_
 10
323.9705907402217804
 20
182.2162578812566949
 30
0.0
 70
    32
  0
VERTEX
  5
246
  8
VISIBLE_NARROW__ISO_
 10
323.9671655433713795
 20
182.2264153615716964
 30
0.0
 70
    32
  0
VERTEX
  5
247
  8
VISIBLE_NARROW__ISO_
 10
323.9636222362847775
 20
182.2365334718078884
 30
0.0
 70
    32
  0
VERTEX
  5
248
  8
VISIBLE_NARROW__ISO_
 10
323.9599214488832217
 20
182.2466122119654131
 30
0.0
 70
    32
  0
VERTEX
  5
249
  8
VISIBLE_NARROW__ISO_
 10
323.9561419213242175
 20
182.256612211965404
 30
0.0
 70
    32
  0
VERTEX
  5
24A
  8
VISIBLE_NARROW__ISO_
 10
323.9522442835287848
 20
182.2665728418866991
 30
0.0
 70
    32
  0
VERTEX
  5
24B
  8
VISIBLE_NARROW__ISO_
 10
323.9481891654186256
 20
182.2764941017292131
 30
0.0
 70
    32
  0
VERTEX
  5
24C
  8
VISIBLE_NARROW__ISO_
 10
323.9440553071509044
 20
182.2863759914928892
 30
0.0
 70
    32
  0
VERTEX
  5
24D
  8
VISIBLE_NARROW__ISO_
 10
323.9397639685681725
 20
182.2961791410992021
 30
0.0
 70
    32
  0
VERTEX
  5
24E
  8
VISIBLE_NARROW__ISO_
 10
323.93535451974941
 20
182.3059822907056002
 30
0.0
 70
    32
  0
VERTEX
  5
24F
  8
VISIBLE_NARROW__ISO_
 10
323.9308663307729717
 20
182.3156673300755983
 30
0.0
 70
    32
  0
VERTEX
  5
250
  8
VISIBLE_NARROW__ISO_
 10
323.9262206614815796
 20
182.3253129993669859
 30
0.0
 70
    32
  0
VERTEX
  5
251
  8
VISIBLE_NARROW__ISO_
 10
323.9214568819539863
 20
182.3349192985795924
 30
0.0
 70
    32
  0
VERTEX
  5
252
  8
VISIBLE_NARROW__ISO_
 10
323.9165749921903057
 20
182.3444468576346935
 30
0.0
 70
    32
  0
VERTEX
  5
253
  8
VISIBLE_NARROW__ISO_
 10
323.9116143622690061
 20
182.3539350466110989
 30
0.0
 70
    32
  0
VERTEX
  5
254
  8
VISIBLE_NARROW__ISO_
 10
323.9064962520328095
 20
182.3633444954299136
 30
0.0
 70
    32
  0
VERTEX
  5
255
  8
VISIBLE_NARROW__ISO_
 10
323.9012600315604118
 20
182.3727145741700895
 30
0.0
 70
    32
  0
VERTEX
  5
256
  8
VISIBLE_NARROW__ISO_
 10
323.8959450709303951
 20
182.3820059127527884
 30
0.0
 70
    32
  0
VERTEX
  5
257
  8
VISIBLE_NARROW__ISO_
 10
323.890512000064291
 20
182.3912185111780104
 30
0.0
 70
    32
  0
VERTEX
  5
258
  8
VISIBLE_NARROW__ISO_
 10
323.8849214488831763
 20
182.4003523694456987
 30
0.0
 70
    32
  0
VERTEX
  5
259
  8
VISIBLE_NARROW__ISO_
 10
323.8792521575446131
 20
182.4094468576346912
 30
0.0
 70
    32
  0
VERTEX
  5
25A
  8
VISIBLE_NARROW__ISO_
 10
323.8734647559697919
 20
182.4184626056662069
 30
0.0
 70
    32
  0
VERTEX
  5
25B
  8
VISIBLE_NARROW__ISO_
 10
323.8675986142375223
 20
182.4273996135401887
 30
0.0
 70
    32
  0
VERTEX
  5
25C
  8
VISIBLE_NARROW__ISO_
 10
323.8615749921902989
 20
182.4362578812566937
 30
0.0
 70
    32
  0
VERTEX
  5
25D
  8
VISIBLE_NARROW__ISO_
 10
323.855472629985627
 20
182.4450767788945029
 30
0.0
 70
    32
  0
VERTEX
  5
25E
  8
VISIBLE_NARROW__ISO_
 10
323.8492521575445835
 20
182.453777566296111
 30
0.0
 70
    32
  0
VERTEX
  5
25F
  8
VISIBLE_NARROW__ISO_
 10
323.8429529449462052
 20
182.4624389836189096
 30
0.0
 70
    32
  0
VERTEX
  5
260
  8
VISIBLE_NARROW__ISO_
 10
323.8364962520328163
 20
182.470982290705507
 30
0.0
 70
    32
  0
VERTEX
  5
261
  8
VISIBLE_NARROW__ISO_
 10
323.8299608189619221
 20
182.4794862277134087
 30
0.0
 70
    32
  0
VERTEX
  5
262
  8
VISIBLE_NARROW__ISO_
 10
323.8233466457335794
 20
182.4878720544851092
 30
0.0
 70
    32
  0
VERTEX
  5
263
  8
VISIBLE_NARROW__ISO_
 10
323.816574992190283
 20
182.4961791410991907
 30
0.0
 70
    32
  0
VERTEX
  5
264
  8
VISIBLE_NARROW__ISO_
 10
323.809763968568177
 20
182.504407487555909
 30
0.0
 70
    32
  0
VERTEX
  5
265
  8
VISIBLE_NARROW__ISO_
 10
323.8027954646311741
 20
182.5125570938552073
 30
0.0
 70
    32
  0
VERTEX
  5
266
  8
VISIBLE_NARROW__ISO_
 10
323.7957482205367228
 20
182.5206279599968866
 30
0.0
 70
    32
  0
VERTEX
  5
267
  8
VISIBLE_NARROW__ISO_
 10
323.788622236284823
 20
182.5286200859812027
 30
0.0
 70
    32
  0
VERTEX
  5
268
  8
VISIBLE_NARROW__ISO_
 10
323.7813781417966084
 20
182.536494101729204
 30
0.0
 70
    32
  0
VERTEX
  5
269
  8
VISIBLE_NARROW__ISO_
 10
323.7740553071508884
 20
182.5442893773197
 30
0.0
 70
    32
  0
VERTEX
  5
26A
  8
VISIBLE_NARROW__ISO_
 10
323.7666143622690242
 20
182.5520059127528043
 30
0.0
 70
    32
  0
VERTEX
  5
26B
  8
VISIBLE_NARROW__ISO_
 10
323.7590946772295979
 20
182.5596437080284034
 30
0.0
 70
    32
  0
VERTEX
  5
26C
  8
VISIBLE_NARROW__ISO_
 10
323.7514962520327799
 20
182.5671633930678013
 30
0.0
 70
    32
  0
VERTEX
  5
26D
  8
VISIBLE_NARROW__ISO_
 10
323.743779716599704
 20
182.5746043379496086
 30
0.0
 70
    32
  0
VERTEX
  5
26E
  8
VISIBLE_NARROW__ISO_
 10
323.7359844410091796
 20
182.5819271725953001
 30
0.0
 70
    32
  0
VERTEX
  5
26F
  8
VISIBLE_NARROW__ISO_
 10
323.7280710551823972
 20
182.5891712670834863
 30
0.0
 70
    32
  0
VERTEX
  5
270
  8
VISIBLE_NARROW__ISO_
 10
323.7201182992769191
 20
182.5962972513354998
 30
0.0
 70
    32
  0
VERTEX
  5
271
  8
VISIBLE_NARROW__ISO_
 10
323.7120474331351829
 20
182.603344495430008
 30
0.0
 70
    32
  0
VERTEX
  5
272
  8
VISIBLE_NARROW__ISO_
 10
323.7038978268358846
 20
182.6102736292882014
 30
0.0
 70
    32
  0
VERTEX
  5
273
  8
VISIBLE_NARROW__ISO_
 10
323.6956694803791947
 20
182.6171240229890032
 30
0.0
 70
    32
  0
VERTEX
  5
274
  8
VISIBLE_NARROW__ISO_
 10
323.6873230236863037
 20
182.6238563064536038
 30
0.0
 70
    32
  0
VERTEX
  5
275
  8
VISIBLE_NARROW__ISO_
 10
323.6789371969147169
 20
182.6305098497606991
 30
0.0
 70
    32
  0
VERTEX
  5
276
  8
VISIBLE_NARROW__ISO_
 10
323.6704332599068152
 20
182.6370452828315081
 30
0.0
 70
    32
  0
VERTEX
  5
277
  8
VISIBLE_NARROW__ISO_
 10
323.6618899528202178
 20
182.6434626056662012
 30
0.0
 70
    32
  0
VERTEX
  5
278
  8
VISIBLE_NARROW__ISO_
 10
323.6532285354974192
 20
182.6498011883433037
 30
0.0
 70
    32
  0
VERTEX
  5
279
  8
VISIBLE_NARROW__ISO_
 10
323.6445277480958111
 20
182.6560216607842904
 30
0.0
 70
    32
  0
VERTEX
  5
27A
  8
VISIBLE_NARROW__ISO_
 10
323.6357482205368115
 20
182.6621240229889906
 30
0.0
 70
    32
  0
VERTEX
  5
27B
  8
VISIBLE_NARROW__ISO_
 10
323.6268505827413833
 20
182.668147645036214
 30
0.0
 70
    32
  0
VERTEX
  5
27C
  8
VISIBLE_NARROW__ISO_
 10
323.617913574867373
 20
182.6740137867685974
 30
0.0
 70
    32
  0
VERTEX
  5
27D
  8
VISIBLE_NARROW__ISO_
 10
323.6088978268360279
 20
182.6798011883433048
 30
0.0
 70
    32
  0
VERTEX
  5
27E
  8
VISIBLE_NARROW__ISO_
 10
323.5998427087257028
 20
182.6854704796818964
 30
0.0
 70
    32
  0
VERTEX
  5
27F
  8
VISIBLE_NARROW__ISO_
 10
323.5906694803791765
 20
182.691021660784287
 30
0.0
 70
    32
  0
VERTEX
  5
280
  8
VISIBLE_NARROW__ISO_
 10
323.581456881954125
 20
182.6964941017290869
 30
0.0
 70
    32
  0
VERTEX
  5
281
  8
VISIBLE_NARROW__ISO_
 10
323.5721655433713977
 20
182.7018090623591036
 30
0.0
 70
    32
  0
VERTEX
  5
282
  8
VISIBLE_NARROW__ISO_
 10
323.5628348347099745
 20
182.7070452828315013
 30
0.0
 70
    32
  0
VERTEX
  5
283
  8
VISIBLE_NARROW__ISO_
 10
323.5533860158124071
 20
182.712124022989002
 30
0.0
 70
    32
  0
VERTEX
  5
284
  8
VISIBLE_NARROW__ISO_
 10
323.5439371969146123
 20
182.7171240229889975
 30
0.0
 70
    32
  0
VERTEX
  5
285
  8
VISIBLE_NARROW__ISO_
 10
323.5343702677809006
 20
182.7220059127527918
 30
0.0
 70
    32
  0
VERTEX
  5
286
  8
VISIBLE_NARROW__ISO_
 10
323.5248033386469046
 20
182.7267696922802998
 30
0.0
 70
    32
  0
VERTEX
  5
287
  8
VISIBLE_NARROW__ISO_
 10
323.5151182992768781
 20
182.7313759914929108
 30
0.0
 70
    32
  0
VERTEX
  5
288
  8
VISIBLE_NARROW__ISO_
 10
323.5054332599067948
 20
182.7359035505479881
 30
0.0
 70
    32
  0
VERTEX
  5
289
  8
VISIBLE_NARROW__ISO_
 10
323.4956694803793198
 20
182.7403129993668927
 30
0.0
 70
    32
  0
VERTEX
  5
28A
  8
VISIBLE_NARROW__ISO_
 10
323.4858269606942258
 20
182.7445649678709003
 30
0.0
 70
    32
  0
VERTEX
  5
28B
  8
VISIBLE_NARROW__ISO_
 10
323.4759844410091887
 20
182.748738196217289
 30
0.0
 70
    32
  0
VERTEX
  5
28C
  8
VISIBLE_NARROW__ISO_
 10
323.4660631811665894
 20
182.7527539442488091
 30
0.0
 70
    32
  0
VERTEX
  5
28D
  8
VISIBLE_NARROW__ISO_
 10
323.4560631811667122
 20
182.7566909521229093
 30
0.0
 70
    32
  0
VERTEX
  5
28E
  8
VISIBLE_NARROW__ISO_
 10
323.4460631811667213
 20
182.7604704796819135
 30
0.0
 70
    32
  0
VERTEX
  5
28F
  8
VISIBLE_NARROW__ISO_
 10
323.4359844410092251
 20
182.7641318970048019
 30
0.0
 70
    32
  0
VERTEX
  5
290
  8
VISIBLE_NARROW__ISO_
 10
323.4258663307729762
 20
182.7676752040914039
 30
0.0
 70
    32
  0
VERTEX
  5
291
  8
VISIBLE_NARROW__ISO_
 10
323.4157482205367273
 20
182.7711004009416911
 30
0.0
 70
    32
  0
VERTEX
  5
292
  8
VISIBLE_NARROW__ISO_
 10
323.4055513701429732
 20
182.7744074875558908
 30
0.0
 70
    32
  0
VERTEX
  5
293
  8
VISIBLE_NARROW__ISO_
 10
323.39531514967058
 20
182.7775570938551937
 30
0.0
 70
    32
  0
VERTEX
  5
294
  8
VISIBLE_NARROW__ISO_
 10
323.3850395591193774
 20
182.7806279599969059
 30
0.0
 70
    32
  0
VERTEX
  5
295
  8
VISIBLE_NARROW__ISO_
 10
323.3747245984894789
 20
182.7835413458236076
 30
0.0
 70
    32
  0
VERTEX
  5
296
  8
VISIBLE_NARROW__ISO_
 10
323.3643702677808278
 20
182.7863366214141934
 30
0.0
 70
    32
  0
VERTEX
  5
297
  8
VISIBLE_NARROW__ISO_
 10
323.3540159370721767
 20
182.788974416689797
 30
0.0
 70
    32
  0
VERTEX
  5
298
  8
VISIBLE_NARROW__ISO_
 10
323.3435828662060203
 20
182.7915334718078952
 30
0.0
 70
    32
  0
VERTEX
  5
299
  8
VISIBLE_NARROW__ISO_
 10
323.3331497953399207
 20
182.7939350466110966
 30
0.0
 70
    32
  0
VERTEX
  5
29A
  8
VISIBLE_NARROW__ISO_
 10
323.3226773543950117
 20
182.7962185111780116
 30
0.0
 70
    32
  0
VERTEX
  5
29B
  8
VISIBLE_NARROW__ISO_
 10
323.3121655433714068
 20
182.798383865508697
 30
0.0
 70
    32
  0
VERTEX
  5
29C
  8
VISIBLE_NARROW__ISO_
 10
323.3016537323476882
 20
182.8003917395244002
 30
0.0
 70
    32
  0
VERTEX
  5
29D
  8
VISIBLE_NARROW__ISO_
 10
323.2911025512453875
 20
182.8022815033039876
 30
0.0
 70
    32
  0
VERTEX
  5
29E
  8
VISIBLE_NARROW__ISO_
 10
323.2805513701429732
 20
182.8040531568472886
 30
0.0
 70
    32
  0
VERTEX
  5
29F
  8
VISIBLE_NARROW__ISO_
 10
323.2699608189619198
 20
182.8057067001543885
 30
0.0
 70
    32
  0
VERTEX
  5
2A0
  8
VISIBLE_NARROW__ISO_
 10
323.2593308977021138
 20
182.8072027631465062
 30
0.0
 70
    32
  0
VERTEX
  5
2A1
  8
VISIBLE_NARROW__ISO_
 10
323.2487009764421941
 20
182.8085807159023943
 30
0.0
 70
    32
  0
VERTEX
  5
2A2
  8
VISIBLE_NARROW__ISO_
 10
323.2380710551823881
 20
182.8098011883433003
 30
0.0
 70
    32
  0
VERTEX
  5
2A3
  8
VISIBLE_NARROW__ISO_
 10
323.2274017638438863
 20
182.8109429206267862
 30
0.0
 70
    32
  0
VERTEX
  5
2A4
  8
VISIBLE_NARROW__ISO_
 10
323.216732472505214
 20
182.8119271725952899
 30
0.0
 70
    32
  0
VERTEX
  5
2A5
  8
VISIBLE_NARROW__ISO_
 10
323.2060238110879027
 20
182.8127539442488967
 30
0.0
 70
    32
  0
VERTEX
  5
2A6
  8
VISIBLE_NARROW__ISO_
 10
323.1953545197494009
 20
182.8135019757449129
 30
0.0
 70
    32
  0
VERTEX
  5
2A7
  8
VISIBLE_NARROW__ISO_
 10
323.1846458583319759
 20
182.8140925269260038
 30
0.0
 70
    32
  0
VERTEX
  5
2A8
  8
VISIBLE_NARROW__ISO_
 10
323.1739371969147214
 20
182.8145255977921124
 30
0.0
 70
    32
  0
VERTEX
  5
2A9
  8
VISIBLE_NARROW__ISO_
 10
323.1632285354974101
 20
182.814879928500801
 30
0.0
 70
    32
  0
VERTEX
  5
2AA
  8
VISIBLE_NARROW__ISO_
 10
323.1524805040012893
 20
182.8150767788945075
 30
0.0
 70
    32
  0
VERTEX
  5
2AB
  8
VISIBLE_NARROW__ISO_
 10
323.141771842583978
 20
182.8151161489732885
 30
0.0
 70
    32
  0
SEQEND
  5
2AC
  8
VISIBLE_NARROW__ISO_
  0
POLYLINE
  5
95
  8
VISIBLE_NARROW__ISO_
 66
     1
 10
0.0
 20
0.0
 30
0.0
 70
     8
  0
VERTEX
  5
2AD
  8
VISIBLE_NARROW__ISO_
 10
323.141771842583978
 20
166.1153102434614084
 30
0.0
 70
    32
  0
VERTEX
  5
2AE
  8
VISIBLE_NARROW__ISO_
 10
323.1524805040012893
 20
166.1153759914928969
 30
0.0
 70
    32
  0
VERTEX
  5
2AF
  8
VISIBLE_NARROW__ISO_
 10
323.1632285354974101
 20
166.1155728418866033
 30
0.0
 70
    32
  0
VERTEX
  5
2B0
  8
VISIBLE_NARROW__ISO_
 10
323.1739371969147214
 20
166.1159011883432868
 30
0.0
 70
    32
  0
VERTEX
  5
2B1
  8
VISIBLE_NARROW__ISO_
 10
323.1846458583319759
 20
166.1163606371621881
 30
0.0
 70
    32
  0
VERTEX
  5
2B2
  8
VISIBLE_NARROW__ISO_
 10
323.1953545197494009
 20
166.1169515820440949
 30
0.0
 70
    32
  0
VERTEX
  5
2B3
  8
VISIBLE_NARROW__ISO_
 10
323.2060238110879027
 20
166.1176732355874037
 30
0.0
 70
    32
  0
VERTEX
  5
2B4
  8
VISIBLE_NARROW__ISO_
 10
323.216732472505214
 20
166.118525991492902
 30
0.0
 70
    32
  0
VERTEX
  5
2B5
  8
VISIBLE_NARROW__ISO_
 10
323.2274017638438863
 20
166.1195098497605898
 30
0.0
 70
    32
  0
VERTEX
  5
2B6
  8
VISIBLE_NARROW__ISO_
 10
323.2380710551823881
 20
166.1206244166897932
 30
0.0
 70
    32
  0
VERTEX
  5
2B7
  8
VISIBLE_NARROW__ISO_
 10
323.2487009764421941
 20
166.121869298579611
 30
0.0
 70
    32
  0
VERTEX
  5
2B8
  8
VISIBLE_NARROW__ISO_
 10
323.2593308977021138
 20
166.1232444954299012
 30
0.0
 70
    32
  0
VERTEX
  5
2B9
  8
VISIBLE_NARROW__ISO_
 10
323.2699608189619198
 20
166.1247500072410048
 30
0.0
 70
    32
  0
VERTEX
  5
2BA
  8
VISIBLE_NARROW__ISO_
 10
323.2805513701429732
 20
166.1263854403117932
 30
0.0
 70
    32
  0
VERTEX
  5
2BB
  8
VISIBLE_NARROW__ISO_
 10
323.2911025512453875
 20
166.1281504009417915
 30
0.0
 70
    32
  0
VERTEX
  5
2BC
  8
VISIBLE_NARROW__ISO_
 10
323.3016537323476882
 20
166.1300452828315031
 30
0.0
 70
    32
  0
VERTEX
  5
2BD
  8
VISIBLE_NARROW__ISO_
 10
323.3121655433714068
 20
166.1320689048787926
 30
0.0
 70
    32
  0
VERTEX
  5
2BE
  8
VISIBLE_NARROW__ISO_
 10
323.3226773543950117
 20
166.1342212670834897
 30
0.0
 70
    32
  0
VERTEX
  5
2BF
  8
VISIBLE_NARROW__ISO_
 10
323.3331497953399207
 20
166.1365023694457079
 30
0.0
 70
    32
  0
VERTEX
  5
2C0
  8
VISIBLE_NARROW__ISO_
 10
323.3435828662060203
 20
166.138911424563787
 30
0.0
 70
    32
  0
VERTEX
  5
2C1
  8
VISIBLE_NARROW__ISO_
 10
323.3540159370721767
 20
166.1414484324378122
 30
0.0
 70
    32
  0
VERTEX
  5
2C2
  8
VISIBLE_NARROW__ISO_
 10
323.3643702677808278
 20
166.1441126056662085
 30
0.0
 70
    32
  0
VERTEX
  5
2C3
  8
VISIBLE_NARROW__ISO_
 10
323.3747245984894789
 20
166.1469039442488054
 30
0.0
 70
    32
  0
VERTEX
  5
2C4
  8
VISIBLE_NARROW__ISO_
 10
323.3850395591193774
 20
166.1498220544850994
 30
0.0
 70
    32
  0
VERTEX
  5
2C5
  8
VISIBLE_NARROW__ISO_
 10
323.39531514967058
 20
166.1528661489732883
 30
0.0
 70
    32
  0
VERTEX
  5
2C6
  8
VISIBLE_NARROW__ISO_
 10
323.4055513701429732
 20
166.1560362277134004
 30
0.0
 70
    32
  0
VERTEX
  5
2C7
  8
VISIBLE_NARROW__ISO_
 10
323.4157482205367273
 20
166.1593311096031869
 30
0.0
 70
    32
  0
VERTEX
  5
2C8
  8
VISIBLE_NARROW__ISO_
 10
323.4258663307729762
 20
166.1627511883432931
 30
0.0
 70
    32
  0
VERTEX
  5
2C9
  8
VISIBLE_NARROW__ISO_
 10
323.4359844410092251
 20
166.1662952828314985
 30
0.0
 70
    32
  0
VERTEX
  5
2CA
  8
VISIBLE_NARROW__ISO_
 10
323.4460631811667213
 20
166.1699629993669873
 30
0.0
 70
    32
  0
VERTEX
  5
2CB
  8
VISIBLE_NARROW__ISO_
 10
323.4560631811667122
 20
166.1737539442488014
 30
0.0
 70
    32
  0
VERTEX
  5
2CC
  8
VISIBLE_NARROW__ISO_
 10
323.4660631811665894
 20
166.1776673300755931
 30
0.0
 70
    32
  0
VERTEX
  5
2CD
  8
VISIBLE_NARROW__ISO_
 10
323.4759844410091887
 20
166.1817027631464896
 30
0.0
 70
    32
  0
VERTEX
  5
2CE
  8
VISIBLE_NARROW__ISO_
 10
323.4858269606942258
 20
166.1858594560598874
 30
0.0
 70
    32
  0
VERTEX
  5
2CF
  8
VISIBLE_NARROW__ISO_
 10
323.4956694803793198
 20
166.1901374088157866
 30
0.0
 70
    32
  0
VERTEX
  5
2D0
  8
VISIBLE_NARROW__ISO_
 10
323.5054332599067948
 20
166.1945350466110085
 30
0.0
 70
    32
  0
VERTEX
  5
2D1
  8
VISIBLE_NARROW__ISO_
 10
323.5151182992768781
 20
166.1990519757449078
 30
0.0
 70
    32
  0
VERTEX
  5
2D2
  8
VISIBLE_NARROW__ISO_
 10
323.5248033386469046
 20
166.2036881962173993
 30
0.0
 70
    32
  0
VERTEX
  5
2D3
  8
VISIBLE_NARROW__ISO_
 10
323.5343702677809006
 20
166.2084421332251907
 30
0.0
 70
    32
  0
VERTEX
  5
2D4
  8
VISIBLE_NARROW__ISO_
 10
323.5439371969146123
 20
166.2133133930676934
 30
0.0
 70
    32
  0
VERTEX
  5
2D5
  8
VISIBLE_NARROW__ISO_
 10
323.5533860158124071
 20
166.2183015820440914
 30
0.0
 70
    32
  0
VERTEX
  5
2D6
  8
VISIBLE_NARROW__ISO_
 10
323.5628348347099745
 20
166.2234055190519939
 30
0.0
 70
    32
  0
VERTEX
  5
2D7
  8
VISIBLE_NARROW__ISO_
 10
323.5721655433713977
 20
166.2286244166897973
 30
0.0
 70
    32
  0
VERTEX
  5
2D8
  8
VISIBLE_NARROW__ISO_
 10
323.581456881954125
 20
166.233957881256714
 30
0.0
 70
    32
  0
VERTEX
  5
2D9
  8
VISIBLE_NARROW__ISO_
 10
323.5906694803791765
 20
166.23940473165041
 30
0.0
 70
    32
  0
VERTEX
  5
2DA
  8
VISIBLE_NARROW__ISO_
 10
323.5998427087257028
 20
166.2449645741700976
 30
0.0
 70
    32
  0
VERTEX
  5
2DB
  8
VISIBLE_NARROW__ISO_
 10
323.6088978268360279
 20
166.250636227713386
 30
0.0
 70
    32
  0
VERTEX
  5
2DC
  8
VISIBLE_NARROW__ISO_
 10
323.617913574867373
 20
166.2564185111779977
 30
0.0
 70
    32
  0
VERTEX
  5
2DD
  8
VISIBLE_NARROW__ISO_
 10
323.6268505827413833
 20
166.2623114245637908
 30
0.0
 70
    32
  0
VERTEX
  5
2DE
  8
VISIBLE_NARROW__ISO_
 10
323.6357482205368115
 20
166.2683133930677002
 30
0.0
 70
    32
  0
VERTEX
  5
2DF
  8
VISIBLE_NARROW__ISO_
 10
323.6445277480958111
 20
166.2744240229889954
 30
0.0
 70
    32
  0
VERTEX
  5
2E0
  8
VISIBLE_NARROW__ISO_
 10
323.6532285354974192
 20
166.2806417395244978
 30
0.0
 70
    32
  0
VERTEX
  5
2E1
  8
VISIBLE_NARROW__ISO_
 10
323.6618899528202178
 20
166.2869661489733062
 30
0.0
 70
    32
  0
VERTEX
  5
2E2
  8
VISIBLE_NARROW__ISO_
 10
323.6704332599068152
 20
166.2933960702330864
 30
0.0
 70
    32
  0
VERTEX
  5
2E3
  8
VISIBLE_NARROW__ISO_
 10
323.6789371969147169
 20
166.2999307159024056
 30
0.0
 70
    32
  0
VERTEX
  5
2E4
  8
VISIBLE_NARROW__ISO_
 10
323.6873230236863037
 20
166.3065689048787874
 30
0.0
 70
    32
  0
VERTEX
  5
2E5
  8
VISIBLE_NARROW__ISO_
 10
323.6956694803791947
 20
166.3133098497607136
 30
0.0
 70
    32
  0
VERTEX
  5
2E6
  8
VISIBLE_NARROW__ISO_
 10
323.7038978268358846
 20
166.320152369445708
 30
0.0
 70
    32
  0
VERTEX
  5
2E7
  8
VISIBLE_NARROW__ISO_
 10
323.7120474331351829
 20
166.3270956765323092
 30
0.0
 70
    32
  0
VERTEX
  5
2E8
  8
VISIBLE_NARROW__ISO_
 10
323.7201182992769191
 20
166.3341381962173102
 30
0.0
 70
    32
  0
VERTEX
  5
2E9
  8
VISIBLE_NARROW__ISO_
 10
323.7280710551823972
 20
166.3412795348000088
 30
0.0
 70
    32
  0
VERTEX
  5
2EA
  8
VISIBLE_NARROW__ISO_
 10
323.7359844410091796
 20
166.3485181174771981
 30
0.0
 70
    32
  0
VERTEX
  5
2EB
  8
VISIBLE_NARROW__ISO_
 10
323.743779716599704
 20
166.3558531568473029
 30
0.0
 70
    32
  0
VERTEX
  5
2EC
  8
VISIBLE_NARROW__ISO_
 10
323.7514962520327799
 20
166.3632834718079039
 30
0.0
 70
    32
  0
VERTEX
  5
2ED
  8
VISIBLE_NARROW__ISO_
 10
323.7590946772295979
 20
166.3708078812566953
 30
0.0
 70
    32
  0
VERTEX
  5
2EE
  8
VISIBLE_NARROW__ISO_
 10
323.7666143622690242
 20
166.3784252040913998
 30
0.0
 70
    32
  0
VERTEX
  5
2EF
  8
VISIBLE_NARROW__ISO_
 10
323.7740553071508884
 20
166.3861342592095127
 30
0.0
 70
    32
  0
VERTEX
  5
2F0
  8
VISIBLE_NARROW__ISO_
 10
323.7813781417966084
 20
166.3939350466110056
 30
0.0
 70
    32
  0
VERTEX
  5
2F1
  8
VISIBLE_NARROW__ISO_
 10
323.788622236284823
 20
166.4018248103905933
 30
0.0
 70
    32
  0
VERTEX
  5
2F2
  8
VISIBLE_NARROW__ISO_
 10
323.7957482205367228
 20
166.4098011883432946
 30
0.0
 70
    32
  0
VERTEX
  5
2F3
  8
VISIBLE_NARROW__ISO_
 10
323.8027954646311741
 20
166.4178681174772123
 30
0.0
 70
    32
  0
VERTEX
  5
2F4
  8
VISIBLE_NARROW__ISO_
 10
323.809763968568177
 20
166.4260177237763969
 30
0.0
 70
    32
  0
VERTEX
  5
2F5
  8
VISIBLE_NARROW__ISO_
 10
323.816574992190283
 20
166.4342539442488089
 30
0.0
 70
    32
  0
VERTEX
  5
2F6
  8
VISIBLE_NARROW__ISO_
 10
323.8233466457335794
 20
166.4425728418866015
 30
0.0
 70
    32
  0
VERTEX
  5
2F7
  8
VISIBLE_NARROW__ISO_
 10
323.8299608189619221
 20
166.4509744166898031
 30
0.0
 70
    32
  0
VERTEX
  5
2F8
  8
VISIBLE_NARROW__ISO_
 10
323.8364962520328163
 20
166.4594547316503963
 30
0.0
 70
    32
  0
VERTEX
  5
2F9
  8
VISIBLE_NARROW__ISO_
 10
323.8429529449462052
 20
166.4680177237763985
 30
0.0
 70
    32
  0
VERTEX
  5
2FA
  8
VISIBLE_NARROW__ISO_
 10
323.8492521575445835
 20
166.4766594560597923
 30
0.0
 70
    32
  0
VERTEX
  5
2FB
  8
VISIBLE_NARROW__ISO_
 10
323.855472629985627
 20
166.4853759914929014
 30
0.0
 70
    32
  0
VERTEX
  5
2FC
  8
VISIBLE_NARROW__ISO_
 10
323.8615749921902989
 20
166.4941673300756122
 30
0.0
 70
    32
  0
VERTEX
  5
2FD
  8
VISIBLE_NARROW__ISO_
 10
323.8675986142375223
 20
166.5030374088157998
 30
0.0
 70
    32
  0
VERTEX
  5
2FE
  8
VISIBLE_NARROW__ISO_
 10
323.8734647559697919
 20
166.5119783536977138
 30
0.0
 70
    32
  0
VERTEX
  5
2FF
  8
VISIBLE_NARROW__ISO_
 10
323.8792521575446131
 20
166.5209901647212973
 30
0.0
 70
    32
  0
VERTEX
  5
300
  8
VISIBLE_NARROW__ISO_
 10
323.8849214488831763
 20
166.5300728418866072
 30
0.0
 70
    32
  0
VERTEX
  5
301
  8
VISIBLE_NARROW__ISO_
 10
323.890512000064291
 20
166.5392263851937003
 30
0.0
 70
    32
  0
VERTEX
  5
302
  8
VISIBLE_NARROW__ISO_
 10
323.8959450709303951
 20
166.5484468576347012
 30
0.0
 70
    32
  0
VERTEX
  5
303
  8
VISIBLE_NARROW__ISO_
 10
323.9012600315604118
 20
166.5577342592094965
 30
0.0
 70
    32
  0
VERTEX
  5
304
  8
VISIBLE_NARROW__ISO_
 10
323.9064962520328095
 20
166.567084652910296
 30
0.0
 70
    32
  0
VERTEX
  5
305
  8
VISIBLE_NARROW__ISO_
 10
323.9116143622690061
 20
166.576498038736986
 30
0.0
 70
    32
  0
VERTEX
  5
306
  8
VISIBLE_NARROW__ISO_
 10
323.9165749921903057
 20
166.585974416689794
 30
0.0
 70
    32
  0
VERTEX
  5
307
  8
VISIBLE_NARROW__ISO_
 10
323.9214568819539863
 20
166.5955137867684925
 30
0.0
 70
    32
  0
VERTEX
  5
308
  8
VISIBLE_NARROW__ISO_
 10
323.9262206614815796
 20
166.6051122119654053
 30
0.0
 70
    32
  0
VERTEX
  5
309
  8
VISIBLE_NARROW__ISO_
 10
323.9308663307729717
 20
166.6147657552724866
 30
0.0
 70
    32
  0
VERTEX
  5
30A
  8
VISIBLE_NARROW__ISO_
 10
323.93535451974941
 20
166.6244783536976968
 30
0.0
 70
    32
  0
VERTEX
  5
30B
  8
VISIBLE_NARROW__ISO_
 10
323.9397639685681725
 20
166.6342421332252002
 30
0.0
 70
    32
  0
VERTEX
  5
30C
  8
VISIBLE_NARROW__ISO_
 10
323.9440553071509044
 20
166.6440610308630141
 30
0.0
 70
    32
  0
VERTEX
  5
30D
  8
VISIBLE_NARROW__ISO_
 10
323.9481891654186256
 20
166.6539350466111102
 30
0.0
 70
    32
  0
VERTEX
  5
30E
  8
VISIBLE_NARROW__ISO_
 10
323.9522442835287848
 20
166.6638563064535958
 30
0.0
 70
    32
  0
VERTEX
  5
30F
  8
VISIBLE_NARROW__ISO_
 10
323.9561419213242175
 20
166.673828747398403
 30
0.0
 70
    32
  0
VERTEX
  5
310
  8
VISIBLE_NARROW__ISO_
 10
323.9599214488832217
 20
166.6838484324377987
 30
0.0
 70
    32
  0
VERTEX
  5
311
  8
VISIBLE_NARROW__ISO_
 10
323.9636222362847775
 20
166.6939114245637938
 30
0.0
 70
    32
  0
VERTEX
  5
312
  8
VISIBLE_NARROW__ISO_
 10
323.9671655433713795
 20
166.7040216607842922
 30
0.0
 70
    32
  0
VERTEX
  5
313
  8
VISIBLE_NARROW__ISO_
 10
323.9705907402217804
 20
166.7141712670834863
 30
0.0
 70
    32
  0
VERTEX
  5
314
  8
VISIBLE_NARROW__ISO_
 10
323.9738584567572275
 20
166.7243681174772121
 30
0.0
 70
    32
  0
VERTEX
  5
315
  8
VISIBLE_NARROW__ISO_
 10
323.9770474331352261
 20
166.7346004009417868
 30
0.0
 70
    32
  0
VERTEX
  5
316
  8
VISIBLE_NARROW__ISO_
 10
323.9800789291982142
 20
166.7448720544851142
 30
0.0
 70
    32
  0
VERTEX
  5
317
  8
VISIBLE_NARROW__ISO_
 10
323.9829923150248874
 20
166.7551830781071089
 30
0.0
 70
    32
  0
VERTEX
  5
318
  8
VISIBLE_NARROW__ISO_
 10
323.9857875906154732
 20
166.7655255977921058
 30
0.0
 70
    32
  0
VERTEX
  5
319
  8
VISIBLE_NARROW__ISO_
 10
323.988464755969801
 20
166.7759035505480085
 30
0.0
 70
    32
  0
VERTEX
  5
31A
  8
VISIBLE_NARROW__ISO_
 10
323.990984441009175
 20
166.7863129993669133
 30
0.0
 70
    32
  0
VERTEX
  5
31B
  8
VISIBLE_NARROW__ISO_
 10
323.9933860158124048
 20
166.7967539442489056
 30
0.0
 70
    32
  0
VERTEX
  5
31C
  8
VISIBLE_NARROW__ISO_
 10
323.9956694803793198
 20
166.8072263851937009
 30
0.0
 70
    32
  0
VERTEX
  5
31D
  8
VISIBLE_NARROW__ISO_
 10
323.9978348347099768
 20
166.8177224481858048
 30
0.0
 70
    32
  0
VERTEX
  5
31E
  8
VISIBLE_NARROW__ISO_
 10
323.99984270872568
 20
166.8282460702330923
 30
0.0
 70
    32
  0
VERTEX
  5
31F
  8
VISIBLE_NARROW__ISO_
 10
324.0017718425839917
 20
166.838793314327603
 30
0.0
 70
    32
  0
VERTEX
  5
320
  8
VISIBLE_NARROW__ISO_
 10
324.0035041260484832
 20
166.8493641804693084
 30
0.0
 70
    32
  0
VERTEX
  5
321
  8
VISIBLE_NARROW__ISO_
 10
324.005157669355583
 20
166.8599547316503902
 30
0.0
 70
    32
  0
VERTEX
  5
322
  8
VISIBLE_NARROW__ISO_
 10
324.006653732347786
 20
166.8705689048788088
 30
0.0
 70
    32
  0
VERTEX
  5
323
  8
VISIBLE_NARROW__ISO_
 10
324.0080316851036741
 20
166.8811948891307964
 30
0.0
 70
    32
  0
VERTEX
  5
324
  8
VISIBLE_NARROW__ISO_
 10
324.009291527623418
 20
166.8918405584221034
 30
0.0
 70
    32
  0
VERTEX
  5
325
  8
VISIBLE_NARROW__ISO_
 10
324.0103938898280944
 20
166.9025019757449115
 30
0.0
 70
    32
  0
VERTEX
  5
326
  8
VISIBLE_NARROW__ISO_
 10
324.0113781417966266
 20
166.9131752040912886
 30
0.0
 70
    32
  0
VERTEX
  5
327
  8
VISIBLE_NARROW__ISO_
 10
324.012244283528787
 20
166.9238602434614052
 30
0.0
 70
    32
  0
VERTEX
  5
328
  8
VISIBLE_NARROW__ISO_
 10
324.0129529449462211
 20
166.9345570938552044
 30
0.0
 70
    32
  0
VERTEX
  5
329
  8
VISIBLE_NARROW__ISO_
 10
324.0135434961272836
 20
166.945261818264612
 30
0.0
 70
    32
  0
VERTEX
  5
32A
  8
VISIBLE_NARROW__ISO_
 10
324.014015937072088
 20
166.9559704796818949
 30
0.0
 70
    32
  0
VERTEX
  5
32B
  8
VISIBLE_NARROW__ISO_
 10
324.0143308977021093
 20
166.9666870151150135
 30
0.0
 70
    32
  0
VERTEX
  5
32C
  8
VISIBLE_NARROW__ISO_
 10
324.0145277480958157
 20
166.9774074875558938
 30
0.0
 70
    32
  0
VERTEX
  5
32D
  8
VISIBLE_NARROW__ISO_
 10
324.014606488253321
 20
166.9881279599968877
 30
0.0
 70
    32
  0
SEQEND
  5
32E
  8
VISIBLE_NARROW__ISO_
  0
LINE
  5
96
  8
VISIBLE_NARROW__ISO_
 10
324.0145928244970719
 20
166.9881280836335975
 30
0.0
 11
324.0145928244970719
 21
181.9423128375879912
 31
0.0
  0
VIEWPORT
  5
A2
 67
     1
  8
0
 10
174.2623212628531917
 20
238.2259642401535871
 30
0.0
 40
61.4553808492419193
 41
25.8821700115076609
 68
     1
 69
     1
1001
ACAD
1000
MVIEW
1002
{
1070
    16
1010
0.0
1020
0.0
1030
0.0
1010
0.0
1020
0.0
1030
1.0
1040
0.0
1040
25.8821700115076609
1040
174.2623212628531917
1040
238.2259642401535871
1040
50.0
1040
0.0
1040
0.0
1070
     0
1070
  1000
1070
     1
1070
     1
1070
     0
1070
     0
1070
     0
1070
     0
1040
0.0
1040
0.0
1040
0.0
1040
0.5
1040
0.5
1040
0.5
1040
0.5
1070
     0
1002
{
1002
}
1002
}
  0
LINE
  5
7D6
 67
     1
  8
VISIBLE_NARROW__ISO_
 10
189.4387608104786125
 20
246.5866423019436127
 30
0.0
 11
162.0837306179168138
 21
246.5866423019436979
 31
0.0
  0
POLYLINE
  5
7D7
 67
     1
  8
VISIBLE_NARROW__ISO_
 66
     1
 10
0.0
 20
0.0
 30
0.0
 70
     8
  0
VERTEX
  5
7D8
 67
     1
  8
VISIBLE_NARROW__ISO_
 10
162.0837302093353003
 20
246.5866276735040117
 30
0.0
 70
    32
  0
VERTEX
  5
7D9
 67
     1
  8
VISIBLE_NARROW__ISO_
 10
162.0730097368943063
 20
246.5865883034252874
 30
0.0
 70
    32
  0
VERTEX
  5
7DA
 67
     1
  8
VISIBLE_NARROW__ISO_
 10
162.0622892644533977
 20
246.5863914530316094
 30
0.0
 70
    32
  0
VERTEX
  5
7DB
 67
     1
  8
VISIBLE_NARROW__ISO_
 10
162.0515727290203074
 20
246.5860371223228924
 30
0.0
 70
    32
  0
VERTEX
  5
7DC
 67
     1
  8
VISIBLE_NARROW__ISO_
 10
162.0408640676029961
 20
246.5856040514568122
 30
0.0
 70
    32
  0
VERTEX
  5
7DD
 67
     1
  8
VISIBLE_NARROW__ISO_
 10
162.0301593431935032
 20
246.5850135002756929
 30
0.0
 70
    32
  0
VERTEX
  5
7DE
 67
     1
  8
VISIBLE_NARROW__ISO_
 10
162.019466429807693
 20
246.5842654687795914
 30
0.0
 70
    32
  0
VERTEX
  5
7DF
 67
     1
  8
VISIBLE_NARROW__ISO_
 10
162.0087774534297864
 20
246.5834386971260983
 30
0.0
 70
    32
  0
VERTEX
  5
7E0
 67
     1
  8
VISIBLE_NARROW__ISO_
 10
161.9981042250832957
 20
246.5824544451575946
 30
0.0
 70
    32
  0
VERTEX
  5
7E1
 67
     1
  8
VISIBLE_NARROW__ISO_
 10
161.987446744768306
 20
246.5813127128741087
 30
0.0
 70
    32
  0
VERTEX
  5
7E2
 67
     1
  8
VISIBLE_NARROW__ISO_
 10
161.9768010754769989
 20
246.5800922404332027
 30
0.0
 70
    32
  0
VERTEX
  5
7E3
 67
     1
  8
VISIBLE_NARROW__ISO_
 10
161.9661711542171929
 20
246.5787142876772862
 30
0.0
 70
    32
  0
VERTEX
  5
7E4
 67
     1
  8
VISIBLE_NARROW__ISO_
 10
161.9555569809888027
 20
246.5772182246851116
 30
0.0
 70
    32
  0
VERTEX
  5
7E5
 67
     1
  8
VISIBLE_NARROW__ISO_
 10
161.9449664298076925
 20
246.5755646813780118
 30
0.0
 70
    32
  0
VERTEX
  5
7E6
 67
     1
  8
VISIBLE_NARROW__ISO_
 10
161.9343955636659871
 20
246.5737930278347108
 30
0.0
 70
    32
  0
VERTEX
  5
7E7
 67
     1
  8
VISIBLE_NARROW__ISO_
 10
161.9238483195715048
 20
246.5719032640552086
 30
0.0
 70
    32
  0
VERTEX
  5
7E8
 67
     1
  8
VISIBLE_NARROW__ISO_
 10
161.9133246975243026
 20
246.5698953900395054
 30
0.0
 70
    32
  0
VERTEX
  5
7E9
 67
     1
  8
VISIBLE_NARROW__ISO_
 10
161.9028286345321135
 20
246.5677300357087063
 30
0.0
 70
    32
  0
VERTEX
  5
7EA
 67
     1
  8
VISIBLE_NARROW__ISO_
 10
161.8923561935872044
 20
246.5654465711417913
 30
0.0
 70
    32
  0
VERTEX
  5
7EB
 67
     1
  8
VISIBLE_NARROW__ISO_
 10
161.8819152487052975
 20
246.5630449963387036
 30
0.0
 70
    32
  0
VERTEX
  5
7EC
 67
     1
  8
VISIBLE_NARROW__ISO_
 10
161.8715057998863927
 20
246.5604859412206054
 30
0.0
 70
    32
  0
VERTEX
  5
7ED
 67
     1
  8
VISIBLE_NARROW__ISO_
 10
161.86112784713049
 20
246.5578481459450018
 30
0.0
 70
    32
  0
VERTEX
  5
7EE
 67
     1
  8
VISIBLE_NARROW__ISO_
 10
161.8507853274454931
 20
246.5550528703543876
 30
0.0
 70
    32
  0
VERTEX
  5
7EF
 67
     1
  8
VISIBLE_NARROW__ISO_
 10
161.8404743038234983
 20
246.5521394845276859
 30
0.0
 70
    32
  0
VERTEX
  5
7F0
 67
     1
  8
VISIBLE_NARROW__ISO_
 10
161.8302026502801141
 20
246.5490686183858884
 30
0.0
 70
    32
  0
VERTEX
  5
7F1
 67
     1
  8
VISIBLE_NARROW__ISO_
 10
161.8199703668155962
 20
246.5459190120866992
 30
0.0
 70
    32
  0
VERTEX
  5
7F2
 67
     1
  8
VISIBLE_NARROW__ISO_
 10
161.8097774534296889
 20
246.5426119254724995
 30
0.0
 70
    32
  0
VERTEX
  5
7F3
 67
     1
  8
VISIBLE_NARROW__ISO_
 10
161.7996239101227047
 20
246.5391867286220986
 30
0.0
 70
    32
  0
VERTEX
  5
7F4
 67
     1
  8
VISIBLE_NARROW__ISO_
 10
161.7895136739022064
 20
246.5356434215354966
 30
0.0
 70
    32
  0
VERTEX
  5
7F5
 67
     1
  8
VISIBLE_NARROW__ISO_
 10
161.7794506817762112
 20
246.5319820042126935
 30
0.0
 70
    32
  0
VERTEX
  5
7F6
 67
     1
  8
VISIBLE_NARROW__ISO_
 10
161.7694309967367872
 20
246.5282024766536892
 30
0.0
 70
    32
  0
VERTEX
  5
7F7
 67
     1
  8
VISIBLE_NARROW__ISO_
 10
161.7594585557920084
 20
246.5242654687795891
 30
0.0
 70
    32
  0
VERTEX
  5
7F8
 67
     1
  8
VISIBLE_NARROW__ISO_
 10
161.7495372959494091
 20
246.5202497207480974
 30
0.0
 70
    32
  0
VERTEX
  5
7F9
 67
     1
  8
VISIBLE_NARROW__ISO_
 10
161.739667217209302
 20
246.5160764924017087
 30
0.0
 70
    32
  0
VERTEX
  5
7FA
 67
     1
  8
VISIBLE_NARROW__ISO_
 10
161.7298443825636127
 20
246.5118245238977011
 30
0.0
 70
    32
  0
VERTEX
  5
7FB
 67
     1
  8
VISIBLE_NARROW__ISO_
 10
161.7200806030361093
 20
246.5074150750787965
 30
0.0
 70
    32
  0
VERTEX
  5
7FC
 67
     1
  8
VISIBLE_NARROW__ISO_
 10
161.7103680046108138
 20
246.5028875160236908
 30
0.0
 70
    32
  0
VERTEX
  5
7FD
 67
     1
  8
VISIBLE_NARROW__ISO_
 10
161.7007144613037894
 20
246.4982812168111082
 30
0.0
 70
    32
  0
VERTEX
  5
7FE
 67
     1
  8
VISIBLE_NARROW__ISO_
 10
161.6911160361069904
 20
246.4935174372836002
 30
0.0
 70
    32
  0
VERTEX
  5
7FF
 67
     1
  8
VISIBLE_NARROW__ISO_
 10
161.6815766660282065
 20
246.4886355475198059
 30
0.0
 70
    32
  0
VERTEX
  5
800
 67
     1
  8
VISIBLE_NARROW__ISO_
 10
161.6721002880753986
 20
246.4836355475198104
 30
0.0
 70
    32
  0
VERTEX
  5
801
 67
     1
  8
VISIBLE_NARROW__ISO_
 10
161.6626869022485948
 20
246.4785568073623097
 30
0.0
 70
    32
  0
VERTEX
  5
802
 67
     1
  8
VISIBLE_NARROW__ISO_
 10
161.653336508547909
 20
246.473320586889912
 30
0.0
 70
    32
  0
VERTEX
  5
803
 67
     1
  8
VISIBLE_NARROW__ISO_
 10
161.6440491069730001
 20
246.4680056262598953
 30
0.0
 70
    32
  0
VERTEX
  5
804
 67
     1
  8
VISIBLE_NARROW__ISO_
 10
161.6348286345321128
 20
246.4625331853150954
 30
0.0
 70
    32
  0
VERTEX
  5
805
 67
     1
  8
VISIBLE_NARROW__ISO_
 10
161.6256750912249913
 20
246.4569820042127049
 30
0.0
 70
    32
  0
VERTEX
  5
806
 67
     1
  8
VISIBLE_NARROW__ISO_
 10
161.6165924140597099
 20
246.4513127128741132
 30
0.0
 70
    32
  0
VERTEX
  5
807
 67
     1
  8
VISIBLE_NARROW__ISO_
 10
161.607580603036098
 20
246.4455253112992921
 30
0.0
 70
    32
  0
VERTEX
  5
808
 67
     1
  8
VISIBLE_NARROW__ISO_
 10
161.5986396581542124
 20
246.439659169566994
 30
0.0
 70
    32
  0
VERTEX
  5
809
 67
     1
  8
VISIBLE_NARROW__ISO_
 10
161.5897695794139963
 20
246.433635547519799
 30
0.0
 70
    32
  0
VERTEX
  5
80A
 67
     1
  8
VISIBLE_NARROW__ISO_
 10
161.580978240831314
 20
246.4275331853150988
 30
0.0
 70
    32
  0
VERTEX
  5
80B
 67
     1
  8
VISIBLE_NARROW__ISO_
 10
161.5722617053982049
 20
246.4213127128741121
 30
0.0
 70
    32
  0
VERTEX
  5
80C
 67
     1
  8
VISIBLE_NARROW__ISO_
 10
161.563619973114811
 20
246.4149741301968959
 30
0.0
 70
    32
  0
VERTEX
  5
80D
 67
     1
  8
VISIBLE_NARROW__ISO_
 10
161.5550569809888088
 20
246.4085568073622881
 30
0.0
 70
    32
  0
VERTEX
  5
80E
 67
     1
  8
VISIBLE_NARROW__ISO_
 10
161.5465766660281872
 20
246.4020213742915075
 30
0.0
 70
    32
  0
VERTEX
  5
80F
 67
     1
  8
VISIBLE_NARROW__ISO_
 10
161.5381750912250141
 20
246.3953678309842985
 30
0.0
 70
    32
  0
VERTEX
  5
810
 67
     1
  8
VISIBLE_NARROW__ISO_
 10
161.529856193587193
 20
246.3886355475198116
 30
0.0
 70
    32
  0
VERTEX
  5
811
 67
     1
  8
VISIBLE_NARROW__ISO_
 10
161.5216199731148095
 20
246.3817851538190098
 30
0.0
 70
    32
  0
VERTEX
  5
812
 67
     1
  8
VISIBLE_NARROW__ISO_
 10
161.5134703668155964
 20
246.3748560199607027
 30
0.0
 70
    32
  0
VERTEX
  5
813
 67
     1
  8
VISIBLE_NARROW__ISO_
 10
161.5054034376817071
 20
246.3678087758661945
 30
0.0
 70
    32
  0
VERTEX
  5
814
 67
     1
  8
VISIBLE_NARROW__ISO_
 10
161.4974270597290058
 20
246.3606827916142947
 30
0.0
 70
    32
  0
VERTEX
  5
815
 67
     1
  8
VISIBLE_NARROW__ISO_
 10
161.4895372959493898
 20
246.3534386971261085
 30
0.0
 70
    32
  0
VERTEX
  5
816
 67
     1
  8
VISIBLE_NARROW__ISO_
 10
161.4817380833509901
 20
246.3461158624803886
 30
0.0
 70
    32
  0
VERTEX
  5
817
 67
     1
  8
VISIBLE_NARROW__ISO_
 10
161.4740294219336931
 20
246.338674917598496
 30
0.0
 70
    32
  0
VERTEX
  5
818
 67
     1
  8
VISIBLE_NARROW__ISO_
 10
161.4664113116974136
 20
246.3311552325590981
 30
0.0
 70
    32
  0
VERTEX
  5
819
 67
     1
  8
VISIBLE_NARROW__ISO_
 10
161.458886114847104
 20
246.3235174372836127
 30
0.0
 70
    32
  0
VERTEX
  5
81A
 67
     1
  8
VISIBLE_NARROW__ISO_
 10
161.4514557998863893
 20
246.3158009018505084
 30
0.0
 70
    32
  0
VERTEX
  5
81B
 67
     1
  8
VISIBLE_NARROW__ISO_
 10
161.4441207605163981
 20
246.3080056262600124
 30
0.0
 70
    32
  0
VERTEX
  5
81C
 67
     1
  8
VISIBLE_NARROW__ISO_
 10
161.4368821778392089
 20
246.3001316105118974
 30
0.0
 70
    32
  0
VERTEX
  5
81D
 67
     1
  8
VISIBLE_NARROW__ISO_
 10
161.4297408392565103
 20
246.292139484527695
 30
0.0
 70
    32
  0
VERTEX
  5
81E
 67
     1
  8
VISIBLE_NARROW__ISO_
 10
161.4226983195715093
 20
246.284068618385902
 30
0.0
 70
    32
  0
VERTEX
  5
81F
 67
     1
  8
VISIBLE_NARROW__ISO_
 10
161.4157550124849081
 20
246.275919012086689
 30
0.0
 70
    32
  0
VERTEX
  5
820
 67
     1
  8
VISIBLE_NARROW__ISO_
 10
161.4089124927998
 20
246.2676906656299991
 30
0.0
 70
    32
  0
VERTEX
  5
821
 67
     1
  8
VISIBLE_NARROW__ISO_
 10
161.4021715479179875
 20
246.2593835790158039
 30
0.0
 70
    32
  0
VERTEX
  5
822
 67
     1
  8
VISIBLE_NARROW__ISO_
 10
161.3955333589416057
 20
246.2509977522441886
 30
0.0
 70
    32
  0
VERTEX
  5
823
 67
     1
  8
VISIBLE_NARROW__ISO_
 10
161.3889987132722865
 20
246.242493815236287
 30
0.0
 70
    32
  0
VERTEX
  5
824
 67
     1
  8
VISIBLE_NARROW__ISO_
 10
161.3825687920123926
 20
246.2339505081496895
 30
0.0
 70
    32
  0
VERTEX
  5
825
 67
     1
  8
VISIBLE_NARROW__ISO_
 10
161.3762443825636126
 20
246.225289090826891
 30
0.0
 70
    32
  0
VERTEX
  5
826
 67
     1
  8
VISIBLE_NARROW__ISO_
 10
161.3700262723274079
 20
246.2165883034253113
 30
0.0
 70
    32
  0
VERTEX
  5
827
 67
     1
  8
VISIBLE_NARROW__ISO_
 10
161.3639160361069003
 20
246.2077694057875021
 30
0.0
 70
    32
  0
VERTEX
  5
828
 67
     1
  8
VISIBLE_NARROW__ISO_
 10
161.3579140676029908
 20
246.1989111380709119
 30
0.0
 70
    32
  0
VERTEX
  5
829
 67
     1
  8
VISIBLE_NARROW__ISO_
 10
161.3520211542171978
 20
246.1899741301969016
 30
0.0
 70
    32
  0
VERTEX
  5
82A
 67
     1
  8
VISIBLE_NARROW__ISO_
 10
161.3462384770517986
 20
246.180958382165386
 30
0.0
 70
    32
  0
VERTEX
  5
82B
 67
     1
  8
VISIBLE_NARROW__ISO_
 10
161.3405672172092977
 20
246.1718638939765071
 30
0.0
 70
    32
  0
VERTEX
  5
82C
 67
     1
  8
VISIBLE_NARROW__ISO_
 10
161.3350073746896101
 20
246.1627300357087904
 30
0.0
 70
    32
  0
VERTEX
  5
82D
 67
     1
  8
VISIBLE_NARROW__ISO_
 10
161.3295605242959141
 20
246.1535174372835968
 30
0.0
 70
    32
  0
VERTEX
  5
82E
 67
     1
  8
VISIBLE_NARROW__ISO_
 10
161.3242270597289121
 20
246.1442260987008979
 30
0.0
 70
    32
  0
VERTEX
  5
82F
 67
     1
  8
VISIBLE_NARROW__ISO_
 10
161.3190081620911087
 20
246.1348560199606936
 30
0.0
 70
    32
  0
VERTEX
  5
830
 67
     1
  8
VISIBLE_NARROW__ISO_
 10
161.3139042250832915
 20
246.1254465711417936
 30
0.0
 70
    32
  0
VERTEX
  5
831
 67
     1
  8
VISIBLE_NARROW__ISO_
 10
161.3089160361068934
 20
246.1159583821653882
 30
0.0
 70
    32
  0
VERTEX
  5
832
 67
     1
  8
VISIBLE_NARROW__ISO_
 10
161.3040447762643907
 20
246.1064308231104008
 30
0.0
 70
    32
  0
VERTEX
  5
833
 67
     1
  8
VISIBLE_NARROW__ISO_
 10
161.2992904455556982
 20
246.096824523897709
 30
0.0
 70
    32
  0
VERTEX
  5
834
 67
     1
  8
VISIBLE_NARROW__ISO_
 10
161.2946546187839942
 20
246.0871788546064067
 30
0.0
 70
    32
  0
VERTEX
  5
835
 67
     1
  8
VISIBLE_NARROW__ISO_
 10
161.2901376896502086
 20
246.0774938152362949
 30
0.0
 70
    32
  0
VERTEX
  5
836
 67
     1
  8
VISIBLE_NARROW__ISO_
 10
161.2857396581541138
 20
246.0676906656300105
 30
0.0
 70
    32
  0
VERTEX
  5
837
 67
     1
  8
VISIBLE_NARROW__ISO_
 10
161.2814620990990875
 20
246.0578875160236976
 30
0.0
 70
    32
  0
VERTEX
  5
838
 67
     1
  8
VISIBLE_NARROW__ISO_
 10
161.2773054061856897
 20
246.0480056262599078
 30
0.0
 70
    32
  0
VERTEX
  5
839
 67
     1
  8
VISIBLE_NARROW__ISO_
 10
161.2732699731147932
 20
246.0380843664173938
 30
0.0
 70
    32
  0
VERTEX
  5
83A
 67
     1
  8
VISIBLE_NARROW__ISO_
 10
161.269356193587214
 20
246.0281237364962124
 30
0.0
 70
    32
  0
VERTEX
  5
83B
 67
     1
  8
VISIBLE_NARROW__ISO_
 10
161.2655656424061021
 20
246.018123736496193
 30
0.0
 70
    32
  0
VERTEX
  5
83C
 67
     1
  8
VISIBLE_NARROW__ISO_
 10
161.2618975321699111
 20
246.0080449963386968
 30
0.0
 70
    32
  0
VERTEX
  5
83D
 67
     1
  8
VISIBLE_NARROW__ISO_
 10
161.2583534376817056
 20
245.9979268861025048
 30
0.0
 70
    32
  0
VERTEX
  5
83E
 67
     1
  8
VISIBLE_NARROW__ISO_
 10
161.2549337526423869
 20
245.9877694057875033
 30
0.0
 70
    32
  0
VERTEX
  5
83F
 67
     1
  8
VISIBLE_NARROW__ISO_
 10
161.251638477051813
 20
245.9775725553938059
 30
0.0
 70
    32
  0
VERTEX
  5
840
 67
     1
  8
VISIBLE_NARROW__ISO_
 10
161.2484687920124031
 20
245.9673363349214128
 30
0.0
 70
    32
  0
VERTEX
  5
841
 67
     1
  8
VISIBLE_NARROW__ISO_
 10
161.2454246975241858
 20
245.9570607443702102
 30
0.0
 70
    32
  0
VERTEX
  5
842
 67
     1
  8
VISIBLE_NARROW__ISO_
 10
161.2425065872880054
 20
245.9467851538190075
 30
0.0
 70
    32
  0
VERTEX
  5
843
 67
     1
  8
VISIBLE_NARROW__ISO_
 10
161.2397152487052949
 20
245.9364308231102996
 30
0.0
 70
    32
  0
VERTEX
  5
844
 67
     1
  8
VISIBLE_NARROW__ISO_
 10
161.2370506817761964
 20
245.9260371223228958
 30
0.0
 70
    32
  0
VERTEX
  5
845
 67
     1
  8
VISIBLE_NARROW__ISO_
 10
161.2345140676029871
 20
245.9156434215354921
 30
0.0
 70
    32
  0
VERTEX
  5
846
 67
     1
  8
VISIBLE_NARROW__ISO_
 10
161.2321046187840921
 20
245.9052103506693925
 30
0.0
 70
    32
  0
VERTEX
  5
847
 67
     1
  8
VISIBLE_NARROW__ISO_
 10
161.2298239101226898
 20
245.8947379097245118
 30
0.0
 70
    32
  0
VERTEX
  5
848
 67
     1
  8
VISIBLE_NARROW__ISO_
 10
161.2276711542172052
 20
245.884226098700907
 30
0.0
 70
    32
  0
VERTEX
  5
849
 67
     1
  8
VISIBLE_NARROW__ISO_
 10
161.2256475321698872
 20
245.8737142876773021
 30
0.0
 70
    32
  0
VERTEX
  5
84A
 67
     1
  8
VISIBLE_NARROW__ISO_
 10
161.2237530439809063
 20
245.8631631065748877
 30
0.0
 70
    32
  0
VERTEX
  5
84B
 67
     1
  8
VISIBLE_NARROW__ISO_
 10
161.2219880833509933
 20
245.8525725553938059
 30
0.0
 70
    32
  0
VERTEX
  5
84C
 67
     1
  8
VISIBLE_NARROW__ISO_
 10
161.2203526502802049
 20
245.8419820042126958
 30
0.0
 70
    32
  0
VERTEX
  5
84D
 67
     1
  8
VISIBLE_NARROW__ISO_
 10
161.2188471384691013
 20
245.831391453031614
 30
0.0
 70
    32
  0
VERTEX
  5
84E
 67
     1
  8
VISIBLE_NARROW__ISO_
 10
161.2174719416186974
 20
245.8207615317716943
 30
0.0
 70
    32
  0
VERTEX
  5
84F
 67
     1
  8
VISIBLE_NARROW__ISO_
 10
161.2162266660282057
 20
245.8100922404331072
 30
0.0
 70
    32
  0
VERTEX
  5
850
 67
     1
  8
VISIBLE_NARROW__ISO_
 10
161.2151124927997898
 20
245.7994623191733865
 30
0.0
 70
    32
  0
VERTEX
  5
851
 67
     1
  8
VISIBLE_NARROW__ISO_
 10
161.2141286345321021
 20
245.7887930278347994
 30
0.0
 70
    32
  0
VERTEX
  5
852
 67
     1
  8
VISIBLE_NARROW__ISO_
 10
161.2132758786266038
 20
245.7780843664174029
 30
0.0
 70
    32
  0
VERTEX
  5
853
 67
     1
  8
VISIBLE_NARROW__ISO_
 10
161.2125538313825075
 20
245.7673757050000916
 30
0.0
 70
    32
  0
VERTEX
  5
854
 67
     1
  8
VISIBLE_NARROW__ISO_
 10
161.2119632802013882
 20
245.7567064136615045
 30
0.0
 70
    32
  0
VERTEX
  5
855
 67
     1
  8
VISIBLE_NARROW__ISO_
 10
161.2115038313824869
 20
245.7459977522441932
 30
0.0
 70
    32
  0
VERTEX
  5
856
 67
     1
  8
VISIBLE_NARROW__ISO_
 10
161.2111754849258034
 20
245.7352497207481008
 30
0.0
 70
    32
  0
VERTEX
  5
857
 67
     1
  8
VISIBLE_NARROW__ISO_
 10
161.2109782408313094
 20
245.7245410593307895
 30
0.0
 70
    32
  0
VERTEX
  5
858
 67
     1
  8
VISIBLE_NARROW__ISO_
 10
161.2109124927999062
 20
245.7138323979135066
 30
0.0
 70
    32
  0
SEQEND
  5
859
 67
     1
  8
VISIBLE_NARROW__ISO_
  0
LINE
  5
85A
 67
     1
  8
VISIBLE_NARROW__ISO_
 10
161.2109126780920008
 20
245.7138243621187996
 30
0.0
 11
161.2109126780920008
 21
230.7596396081644059
 31
0.0
  0
POLYLINE
  5
85B
 67
     1
  8
VISIBLE_NARROW__ISO_
 66
     1
 10
0.0
 20
0.0
 30
0.0
 70
     8
  0
VERTEX
  5
85C
 67
     1
  8
VISIBLE_NARROW__ISO_
 10
161.2109124927999062
 20
230.7596394845276109
 30
0.0
 70
    32
  0
VERTEX
  5
85D
 67
     1
  8
VISIBLE_NARROW__ISO_
 10
161.2109782408313094
 20
230.7489190120867022
 30
0.0
 70
    32
  0
VERTEX
  5
85E
 67
     1
  8
VISIBLE_NARROW__ISO_
 10
161.2111754849258034
 20
230.7381985396457935
 30
0.0
 70
    32
  0
VERTEX
  5
85F
 67
     1
  8
VISIBLE_NARROW__ISO_
 10
161.2115038313824869
 20
230.7274820042127033
 30
0.0
 70
    32
  0
VERTEX
  5
860
 67
     1
  8
VISIBLE_NARROW__ISO_
 10
161.2119632802013882
 20
230.716773342795392
 30
0.0
 70
    32
  0
VERTEX
  5
861
 67
     1
  8
VISIBLE_NARROW__ISO_
 10
161.2125538313825075
 20
230.7060686183858991
 30
0.0
 70
    32
  0
VERTEX
  5
862
 67
     1
  8
VISIBLE_NARROW__ISO_
 10
161.2132758786266038
 20
230.6953717679922136
 30
0.0
 70
    32
  0
VERTEX
  5
863
 67
     1
  8
VISIBLE_NARROW__ISO_
 10
161.2141286345321021
 20
230.684686728622097
 30
0.0
 70
    32
  0
VERTEX
  5
864
 67
     1
  8
VISIBLE_NARROW__ISO_
 10
161.2151124927997898
 20
230.6740135002756915
 30
0.0
 70
    32
  0
VERTEX
  5
865
 67
     1
  8
VISIBLE_NARROW__ISO_
 10
161.2162266660282057
 20
230.6633520829527981
 30
0.0
 70
    32
  0
VERTEX
  5
866
 67
     1
  8
VISIBLE_NARROW__ISO_
 10
161.2174719416186974
 20
230.6527064136614911
 30
0.0
 70
    32
  0
VERTEX
  5
867
 67
     1
  8
VISIBLE_NARROW__ISO_
 10
161.2188471384691013
 20
230.6420804294095035
 30
0.0
 70
    32
  0
VERTEX
  5
868
 67
     1
  8
VISIBLE_NARROW__ISO_
 10
161.2203526502802049
 20
230.6314662561811986
 30
0.0
 70
    32
  0
VERTEX
  5
869
 67
     1
  8
VISIBLE_NARROW__ISO_
 10
161.2219880833509933
 20
230.6208757050000884
 30
0.0
 70
    32
  0
VERTEX
  5
86A
 67
     1
  8
VISIBLE_NARROW__ISO_
 10
161.2237530439809063
 20
230.6103048388584114
 30
0.0
 70
    32
  0
VERTEX
  5
86B
 67
     1
  8
VISIBLE_NARROW__ISO_
 10
161.2256475321698872
 20
230.5997575947639007
 30
0.0
 70
    32
  0
VERTEX
  5
86C
 67
     1
  8
VISIBLE_NARROW__ISO_
 10
161.2276711542172052
 20
230.5892339727166132
 30
0.0
 70
    32
  0
VERTEX
  5
86D
 67
     1
  8
VISIBLE_NARROW__ISO_
 10
161.2298239101226898
 20
230.5787379097245093
 30
0.0
 70
    32
  0
VERTEX
  5
86E
 67
     1
  8
VISIBLE_NARROW__ISO_
 10
161.2321046187840921
 20
230.5682654687796003
 30
0.0
 70
    32
  0
VERTEX
  5
86F
 67
     1
  8
VISIBLE_NARROW__ISO_
 10
161.2345140676029871
 20
230.5578245238976933
 30
0.0
 70
    32
  0
VERTEX
  5
870
 67
     1
  8
VISIBLE_NARROW__ISO_
 10
161.2370506817761964
 20
230.5474150750787885
 30
0.0
 70
    32
  0
VERTEX
  5
871
 67
     1
  8
VISIBLE_NARROW__ISO_
 10
161.2397152487052949
 20
230.5370371223228858
 30
0.0
 70
    32
  0
VERTEX
  5
872
 67
     1
  8
VISIBLE_NARROW__ISO_
 10
161.2425065872880054
 20
230.5266946026378889
 30
0.0
 70
    32
  0
VERTEX
  5
873
 67
     1
  8
VISIBLE_NARROW__ISO_
 10
161.2454246975241858
 20
230.5163835790158089
 30
0.0
 70
    32
  0
VERTEX
  5
874
 67
     1
  8
VISIBLE_NARROW__ISO_
 10
161.2484687920124031
 20
230.5061119254725099
 30
0.0
 70
    32
  0
VERTEX
  5
875
 67
     1
  8
VISIBLE_NARROW__ISO_
 10
161.251638477051813
 20
230.4958796420079921
 30
0.0
 70
    32
  0
VERTEX
  5
876
 67
     1
  8
VISIBLE_NARROW__ISO_
 10
161.2549337526423869
 20
230.4856827916142947
 30
0.0
 70
    32
  0
VERTEX
  5
877
 67
     1
  8
VISIBLE_NARROW__ISO_
 10
161.2583534376817056
 20
230.4755331853149869
 30
0.0
 70
    32
  0
VERTEX
  5
878
 67
     1
  8
VISIBLE_NARROW__ISO_
 10
161.2618975321699111
 20
230.4654229490946022
 30
0.0
 70
    32
  0
VERTEX
  5
879
 67
     1
  8
VISIBLE_NARROW__ISO_
 10
161.2655656424061021
 20
230.4553599569686071
 30
0.0
 70
    32
  0
VERTEX
  5
87A
 67
     1
  8
VISIBLE_NARROW__ISO_
 10
161.269356193587214
 20
230.4453402719292114
 30
0.0
 70
    32
  0
VERTEX
  5
87B
 67
     1
  8
VISIBLE_NARROW__ISO_
 10
161.2732699731147932
 20
230.4353678309844042
 30
0.0
 70
    32
  0
VERTEX
  5
87C
 67
     1
  8
VISIBLE_NARROW__ISO_
 10
161.2773054061856897
 20
230.4254465711418902
 30
0.0
 70
    32
  0
VERTEX
  5
87D
 67
     1
  8
VISIBLE_NARROW__ISO_
 10
161.2814620990990875
 20
230.4155725553937941
 30
0.0
 70
    32
  0
VERTEX
  5
87E
 67
     1
  8
VISIBLE_NARROW__ISO_
 10
161.2857396581541138
 20
230.4057536577560086
 30
0.0
 70
    32
  0
VERTEX
  5
87F
 67
     1
  8
VISIBLE_NARROW__ISO_
 10
161.2901376896502086
 20
230.3959898782283915
 30
0.0
 70
    32
  0
VERTEX
  5
880
 67
     1
  8
VISIBLE_NARROW__ISO_
 10
161.2946546187839942
 20
230.3862772798032097
 30
0.0
 70
    32
  0
VERTEX
  5
881
 67
     1
  8
VISIBLE_NARROW__ISO_
 10
161.2992904455556982
 20
230.3766237364961
 30
0.0
 70
    32
  0
VERTEX
  5
882
 67
     1
  8
VISIBLE_NARROW__ISO_
 10
161.3040447762643907
 20
230.3670253112993009
 30
0.0
 70
    32
  0
VERTEX
  5
883
 67
     1
  8
VISIBLE_NARROW__ISO_
 10
161.3089160361068934
 20
230.3574859412206024
 30
0.0
 70
    32
  0
VERTEX
  5
884
 67
     1
  8
VISIBLE_NARROW__ISO_
 10
161.3139042250832915
 20
230.3480095632677944
 30
0.0
 70
    32
  0
VERTEX
  5
885
 67
     1
  8
VISIBLE_NARROW__ISO_
 10
161.3190081620911087
 20
230.3385961774409907
 30
0.0
 70
    32
  0
VERTEX
  5
886
 67
     1
  8
VISIBLE_NARROW__ISO_
 10
161.3242270597289121
 20
230.3292457837401912
 30
0.0
 70
    32
  0
VERTEX
  5
887
 67
     1
  8
VISIBLE_NARROW__ISO_
 10
161.3295605242959141
 20
230.3199583821655096
 30
0.0
 70
    32
  0
VERTEX
  5
888
 67
     1
  8
VISIBLE_NARROW__ISO_
 10
161.3350073746896101
 20
230.3107379097245087
 30
0.0
 70
    32
  0
VERTEX
  5
889
 67
     1
  8
VISIBLE_NARROW__ISO_
 10
161.3405672172092977
 20
230.3015843664173872
 30
0.0
 70
    32
  0
VERTEX
  5
88A
 67
     1
  8
VISIBLE_NARROW__ISO_
 10
161.3462384770517986
 20
230.292501689251992
 30
0.0
 70
    32
  0
VERTEX
  5
88B
 67
     1
  8
VISIBLE_NARROW__ISO_
 10
161.3520211542171978
 20
230.2834898782284085
 30
0.0
 70
    32
  0
VERTEX
  5
88C
 67
     1
  8
VISIBLE_NARROW__ISO_
 10
161.3579140676029908
 20
230.2745489333466082
 30
0.0
 70
    32
  0
VERTEX
  5
88D
 67
     1
  8
VISIBLE_NARROW__ISO_
 10
161.3639160361069003
 20
230.2656788546063922
 30
0.0
 70
    32
  0
VERTEX
  5
88E
 67
     1
  8
VISIBLE_NARROW__ISO_
 10
161.3700262723274079
 20
230.2568875160237098
 30
0.0
 70
    32
  0
VERTEX
  5
88F
 67
     1
  8
VISIBLE_NARROW__ISO_
 10
161.3762443825636126
 20
230.2481709805906007
 30
0.0
 70
    32
  0
VERTEX
  5
890
 67
     1
  8
VISIBLE_NARROW__ISO_
 10
161.3825687920123926
 20
230.2395292483072069
 30
0.0
 70
    32
  0
VERTEX
  5
891
 67
     1
  8
VISIBLE_NARROW__ISO_
 10
161.3889987132722865
 20
230.2309662561812047
 30
0.0
 70
    32
  0
VERTEX
  5
892
 67
     1
  8
VISIBLE_NARROW__ISO_
 10
161.3955333589416057
 20
230.2224859412206115
 30
0.0
 70
    32
  0
VERTEX
  5
893
 67
     1
  8
VISIBLE_NARROW__ISO_
 10
161.4021715479179875
 20
230.2140843664174099
 30
0.0
 70
    32
  0
VERTEX
  5
894
 67
     1
  8
VISIBLE_NARROW__ISO_
 10
161.4089124927998
 20
230.2057654687795889
 30
0.0
 70
    32
  0
VERTEX
  5
895
 67
     1
  8
VISIBLE_NARROW__ISO_
 10
161.4157550124849081
 20
230.1975292483072053
 30
0.0
 70
    32
  0
VERTEX
  5
896
 67
     1
  8
VISIBLE_NARROW__ISO_
 10
161.4226983195715093
 20
230.1893796420079923
 30
0.0
 70
    32
  0
VERTEX
  5
897
 67
     1
  8
VISIBLE_NARROW__ISO_
 10
161.4297408392565103
 20
230.181312712874103
 30
0.0
 70
    32
  0
VERTEX
  5
898
 67
     1
  8
VISIBLE_NARROW__ISO_
 10
161.4368821778392089
 20
230.173336334921288
 30
0.0
 70
    32
  0
VERTEX
  5
899
 67
     1
  8
VISIBLE_NARROW__ISO_
 10
161.4441207605163981
 20
230.165446571141814
 30
0.0
 70
    32
  0
VERTEX
  5
89A
 67
     1
  8
VISIBLE_NARROW__ISO_
 10
161.4514557998863893
 20
230.1576457837402074
 30
0.0
 70
    32
  0
VERTEX
  5
89B
 67
     1
  8
VISIBLE_NARROW__ISO_
 10
161.458886114847104
 20
230.1499367286222082
 30
0.0
 70
    32
  0
VERTEX
  5
89C
 67
     1
  8
VISIBLE_NARROW__ISO_
 10
161.4664113116974136
 20
230.1423194057875037
 30
0.0
 70
    32
  0
VERTEX
  5
89D
 67
     1
  8
VISIBLE_NARROW__ISO_
 10
161.4740294219336931
 20
230.1347949963387123
 30
0.0
 70
    32
  0
VERTEX
  5
89E
 67
     1
  8
VISIBLE_NARROW__ISO_
 10
161.4817380833509901
 20
230.1273646813779976
 30
0.0
 70
    32
  0
VERTEX
  5
89F
 67
     1
  8
VISIBLE_NARROW__ISO_
 10
161.4895372959493898
 20
230.1200296420080065
 30
0.0
 70
    32
  0
VERTEX
  5
8A0
 67
     1
  8
VISIBLE_NARROW__ISO_
 10
161.4974270597290058
 20
230.1127910593307888
 30
0.0
 70
    32
  0
VERTEX
  5
8A1
 67
     1
  8
VISIBLE_NARROW__ISO_
 10
161.5054034376817071
 20
230.1056497207480902
 30
0.0
 70
    32
  0
VERTEX
  5
8A2
 67
     1
  8
VISIBLE_NARROW__ISO_
 10
161.5134703668155964
 20
230.0986072010630892
 30
0.0
 70
    32
  0
VERTEX
  5
8A3
 67
     1
  8
VISIBLE_NARROW__ISO_
 10
161.5216199731148095
 20
230.091663893976488
 30
0.0
 70
    32
  0
VERTEX
  5
8A4
 67
     1
  8
VISIBLE_NARROW__ISO_
 10
161.529856193587193
 20
230.0848213742914083
 30
0.0
 70
    32
  0
VERTEX
  5
8A5
 67
     1
  8
VISIBLE_NARROW__ISO_
 10
161.5381750912250141
 20
230.0780804294095105
 30
0.0
 70
    32
  0
VERTEX
  5
8A6
 67
     1
  8
VISIBLE_NARROW__ISO_
 10
161.5465766660281872
 20
230.071442240433214
 30
0.0
 70
    32
  0
VERTEX
  5
8A7
 67
     1
  8
VISIBLE_NARROW__ISO_
 10
161.5550569809888088
 20
230.0649075947638948
 30
0.0
 70
    32
  0
VERTEX
  5
8A8
 67
     1
  8
VISIBLE_NARROW__ISO_
 10
161.563619973114811
 20
230.0584776735040009
 30
0.0
 70
    32
  0
VERTEX
  5
8A9
 67
     1
  8
VISIBLE_NARROW__ISO_
 10
161.5722617053982049
 20
230.0521532640551925
 30
0.0
 70
    32
  0
VERTEX
  5
8AA
 67
     1
  8
VISIBLE_NARROW__ISO_
 10
161.580978240831314
 20
230.0459355475198038
 30
0.0
 70
    32
  0
VERTEX
  5
8AB
 67
     1
  8
VISIBLE_NARROW__ISO_
 10
161.5897695794139963
 20
230.0398249175985086
 30
0.0
 70
    32
  0
VERTEX
  5
8AC
 67
     1
  8
VISIBLE_NARROW__ISO_
 10
161.5986396581542124
 20
230.0338229490945992
 30
0.0
 70
    32
  0
VERTEX
  5
8AD
 67
     1
  8
VISIBLE_NARROW__ISO_
 10
161.607580603036098
 20
230.0279300357086925
 30
0.0
 70
    32
  0
VERTEX
  5
8AE
 67
     1
  8
VISIBLE_NARROW__ISO_
 10
161.6165924140597099
 20
230.0221477522441944
 30
0.0
 70
    32
  0
VERTEX
  5
8AF
 67
     1
  8
VISIBLE_NARROW__ISO_
 10
161.6256750912249913
 20
230.016476098700906
 30
0.0
 70
    32
  0
VERTEX
  5
8B0
 67
     1
  8
VISIBLE_NARROW__ISO_
 10
161.6348286345321128
 20
230.01091625618119
 30
0.0
 70
    32
  0
VERTEX
  5
8B1
 67
     1
  8
VISIBLE_NARROW__ISO_
 10
161.6440491069730001
 20
230.005469405787494
 30
0.0
 70
    32
  0
VERTEX
  5
8B2
 67
     1
  8
VISIBLE_NARROW__ISO_
 10
161.653336508547909
 20
230.0001359412206057
 30
0.0
 70
    32
  0
VERTEX
  5
8B3
 67
     1
  8
VISIBLE_NARROW__ISO_
 10
161.6626869022485948
 20
229.9949170435828023
 30
0.0
 70
    32
  0
VERTEX
  5
8B4
 67
     1
  8
VISIBLE_NARROW__ISO_
 10
161.6721002880753986
 20
229.9898131065748998
 30
0.0
 70
    32
  0
VERTEX
  5
8B5
 67
     1
  8
VISIBLE_NARROW__ISO_
 10
161.6815766660282065
 20
229.9848249175985018
 30
0.0
 70
    32
  0
VERTEX
  5
8B6
 67
     1
  8
VISIBLE_NARROW__ISO_
 10
161.6911160361069904
 20
229.9799536577559991
 30
0.0
 70
    32
  0
VERTEX
  5
8B7
 67
     1
  8
VISIBLE_NARROW__ISO_
 10
161.7007144613037894
 20
229.975199720748094
 30
0.0
 70
    32
  0
VERTEX
  5
8B8
 67
     1
  8
VISIBLE_NARROW__ISO_
 10
161.7103680046108138
 20
229.9705635002756878
 30
0.0
 70
    32
  0
VERTEX
  5
8B9
 67
     1
  8
VISIBLE_NARROW__ISO_
 10
161.7200806030361093
 20
229.9660465711417885
 30
0.0
 70
    32
  0
VERTEX
  5
8BA
 67
     1
  8
VISIBLE_NARROW__ISO_
 10
161.7298443825636127
 20
229.961648933346595
 30
0.0
 70
    32
  0
VERTEX
  5
8BB
 67
     1
  8
VISIBLE_NARROW__ISO_
 10
161.739667217209302
 20
229.9573709805906958
 30
0.0
 70
    32
  0
VERTEX
  5
8BC
 67
     1
  8
VISIBLE_NARROW__ISO_
 10
161.7495372959494091
 20
229.9532142876772127
 30
0.0
 70
    32
  0
VERTEX
  5
8BD
 67
     1
  8
VISIBLE_NARROW__ISO_
 10
161.7594585557920084
 20
229.9491788546064015
 30
0.0
 70
    32
  0
VERTEX
  5
8BE
 67
     1
  8
VISIBLE_NARROW__ISO_
 10
161.7694309967367872
 20
229.9452654687796098
 30
0.0
 70
    32
  0
VERTEX
  5
8BF
 67
     1
  8
VISIBLE_NARROW__ISO_
 10
161.7794506817762112
 20
229.9414745238977105
 30
0.0
 70
    32
  0
VERTEX
  5
8C0
 67
     1
  8
VISIBLE_NARROW__ISO_
 10
161.7895136739022064
 20
229.9378068073623069
 30
0.0
 70
    32
  0
VERTEX
  5
8C1
 67
     1
  8
VISIBLE_NARROW__ISO_
 10
161.7996239101227047
 20
229.9342627128741015
 30
0.0
 70
    32
  0
VERTEX
  5
8C2
 67
     1
  8
VISIBLE_NARROW__ISO_
 10
161.8097774534296889
 20
229.93084263413391
 30
0.0
 70
    32
  0
VERTEX
  5
8C3
 67
     1
  8
VISIBLE_NARROW__ISO_
 10
161.8199703668155962
 20
229.9275477522442088
 30
0.0
 70
    32
  0
VERTEX
  5
8C4
 67
     1
  8
VISIBLE_NARROW__ISO_
 10
161.8302026502801141
 20
229.9243776735040115
 30
0.0
 70
    32
  0
VERTEX
  5
8C5
 67
     1
  8
VISIBLE_NARROW__ISO_
 10
161.8404743038234983
 20
229.9213335790159078
 30
0.0
 70
    32
  0
VERTEX
  5
8C6
 67
     1
  8
VISIBLE_NARROW__ISO_
 10
161.8507853274454931
 20
229.9184154687796138
 30
0.0
 70
    32
  0
VERTEX
  5
8C7
 67
     1
  8
VISIBLE_NARROW__ISO_
 10
161.86112784713049
 20
229.9156241301969033
 30
0.0
 70
    32
  0
VERTEX
  5
8C8
 67
     1
  8
VISIBLE_NARROW__ISO_
 10
161.8715057998863927
 20
229.9129599569685922
 30
0.0
 70
    32
  0
VERTEX
  5
8C9
 67
     1
  8
VISIBLE_NARROW__ISO_
 10
161.8819152487052975
 20
229.9104229490945954
 30
0.0
 70
    32
  0
VERTEX
  5
8CA
 67
     1
  8
VISIBLE_NARROW__ISO_
 10
161.8923561935872044
 20
229.9080138939764879
 30
0.0
 70
    32
  0
VERTEX
  5
8CB
 67
     1
  8
VISIBLE_NARROW__ISO_
 10
161.9028286345321135
 20
229.9057327916142981
 30
0.0
 70
    32
  0
VERTEX
  5
8CC
 67
     1
  8
VISIBLE_NARROW__ISO_
 10
161.9133246975243026
 20
229.903580429409601
 30
0.0
 70
    32
  0
VERTEX
  5
8CD
 67
     1
  8
VISIBLE_NARROW__ISO_
 10
161.9238483195715048
 20
229.9015568073623115
 30
0.0
 70
    32
  0
VERTEX
  5
8CE
 67
     1
  8
VISIBLE_NARROW__ISO_
 10
161.9343955636659871
 20
229.8996619254724862
 30
0.0
 70
    32
  0
VERTEX
  5
8CF
 67
     1
  8
VISIBLE_NARROW__ISO_
 10
161.9449664298076925
 20
229.8978969648426016
 30
0.0
 70
    32
  0
VERTEX
  5
8D0
 67
     1
  8
VISIBLE_NARROW__ISO_
 10
161.9555569809888027
 20
229.8962615317718132
 30
0.0
 70
    32
  0
VERTEX
  5
8D1
 67
     1
  8
VISIBLE_NARROW__ISO_
 10
161.9661711542171929
 20
229.8947560199607096
 30
0.0
 70
    32
  0
VERTEX
  5
8D2
 67
     1
  8
VISIBLE_NARROW__ISO_
 10
161.9768010754769989
 20
229.8933808231103058
 30
0.0
 70
    32
  0
VERTEX
  5
8D3
 67
     1
  8
VISIBLE_NARROW__ISO_
 10
161.987446744768306
 20
229.8921359412206016
 30
0.0
 70
    32
  0
VERTEX
  5
8D4
 67
     1
  8
VISIBLE_NARROW__ISO_
 10
161.9981042250832957
 20
229.8910213742913982
 30
0.0
 70
    32
  0
VERTEX
  5
8D5
 67
     1
  8
VISIBLE_NARROW__ISO_
 10
162.0087774534297864
 20
229.8900375160237104
 30
0.0
 70
    32
  0
VERTEX
  5
8D6
 67
     1
  8
VISIBLE_NARROW__ISO_
 10
162.019466429807693
 20
229.8891847601182121
 30
0.0
 70
    32
  0
VERTEX
  5
8D7
 67
     1
  8
VISIBLE_NARROW__ISO_
 10
162.0301593431935032
 20
229.8884631065749033
 30
0.0
 70
    32
  0
VERTEX
  5
8D8
 67
     1
  8
VISIBLE_NARROW__ISO_
 10
162.0408640676029961
 20
229.8878721616929965
 30
0.0
 70
    32
  0
VERTEX
  5
8D9
 67
     1
  8
VISIBLE_NARROW__ISO_
 10
162.0515727290203074
 20
229.8874127128740952
 30
0.0
 70
    32
  0
VERTEX
  5
8DA
 67
     1
  8
VISIBLE_NARROW__ISO_
 10
162.0622892644533977
 20
229.8870843664174117
 30
0.0
 70
    32
  0
VERTEX
  5
8DB
 67
     1
  8
VISIBLE_NARROW__ISO_
 10
162.0730097368943063
 20
229.8868875160237053
 30
0.0
 70
    32
  0
VERTEX
  5
8DC
 67
     1
  8
VISIBLE_NARROW__ISO_
 10
162.0837302093353003
 20
229.8868217679921884
 30
0.0
 70
    32
  0
SEQEND
  5
8DD
 67
     1
  8
VISIBLE_NARROW__ISO_
  0
LINE
  5
8DE
 67
     1
  8
VISIBLE_NARROW__ISO_
 10
162.0837306179168138
 20
229.8868216683395076
 30
0.0
 11
189.4387608104786125
 21
229.8868216683395076
 31
0.0
  0
POLYLINE
  5
8DF
 67
     1
  8
VISIBLE_NARROW__ISO_
 66
     1
 10
0.0
 20
0.0
 30
0.0
 70
     8
  0
VERTEX
  5
8E0
 67
     1
  8
VISIBLE_NARROW__ISO_
 10
190.3115924140597031
 20
245.7138323979135066
 30
0.0
 70
    32
  0
VERTEX
  5
8E1
 67
     1
  8
VISIBLE_NARROW__ISO_
 10
190.3115136739021978
 20
245.7245410593307895
 30
0.0
 70
    32
  0
VERTEX
  5
8E2
 67
     1
  8
VISIBLE_NARROW__ISO_
 10
190.3113168235084913
 20
245.7352497207481008
 30
0.0
 70
    32
  0
VERTEX
  5
8E3
 67
     1
  8
VISIBLE_NARROW__ISO_
 10
190.3110018628786122
 20
245.7459977522441932
 30
0.0
 70
    32
  0
VERTEX
  5
8E4
 67
     1
  8
VISIBLE_NARROW__ISO_
 10
190.310529421933694
 20
245.7567064136615045
 30
0.0
 70
    32
  0
VERTEX
  5
8E5
 67
     1
  8
VISIBLE_NARROW__ISO_
 10
190.3099388707526032
 20
245.7673757050000916
 30
0.0
 70
    32
  0
VERTEX
  5
8E6
 67
     1
  8
VISIBLE_NARROW__ISO_
 10
190.3092302093353112
 20
245.7780843664174029
 30
0.0
 70
    32
  0
VERTEX
  5
8E7
 67
     1
  8
VISIBLE_NARROW__ISO_
 10
190.3083640676030086
 20
245.7887930278347994
 30
0.0
 70
    32
  0
VERTEX
  5
8E8
 67
     1
  8
VISIBLE_NARROW__ISO_
 10
190.3073798156345049
 20
245.7994623191733865
 30
0.0
 70
    32
  0
VERTEX
  5
8E9
 67
     1
  8
VISIBLE_NARROW__ISO_
 10
190.3062774534298001
 20
245.8100922404331072
 30
0.0
 70
    32
  0
VERTEX
  5
8EA
 67
     1
  8
VISIBLE_NARROW__ISO_
 10
190.305017610910113
 20
245.8207615317716943
 30
0.0
 70
    32
  0
VERTEX
  5
8EB
 67
     1
  8
VISIBLE_NARROW__ISO_
 10
190.3036396581541965
 20
245.831391453031614
 30
0.0
 70
    32
  0
VERTEX
  5
8EC
 67
     1
  8
VISIBLE_NARROW__ISO_
 10
190.3021435951621072
 20
245.8419820042126958
 30
0.0
 70
    32
  0
VERTEX
  5
8ED
 67
     1
  8
VISIBLE_NARROW__ISO_
 10
190.3004900518550073
 20
245.8525725553938059
 30
0.0
 70
    32
  0
VERTEX
  5
8EE
 67
     1
  8
VISIBLE_NARROW__ISO_
 10
190.2987577683904021
 20
245.8631631065748877
 30
0.0
 70
    32
  0
VERTEX
  5
8EF
 67
     1
  8
VISIBLE_NARROW__ISO_
 10
190.2968286345322042
 20
245.8737142876773021
 30
0.0
 70
    32
  0
VERTEX
  5
8F0
 67
     1
  8
VISIBLE_NARROW__ISO_
 10
190.2948207605163873
 20
245.884226098700907
 30
0.0
 70
    32
  0
VERTEX
  5
8F1
 67
     1
  8
VISIBLE_NARROW__ISO_
 10
190.2926554061857018
 20
245.8947379097245118
 30
0.0
 70
    32
  0
VERTEX
  5
8F2
 67
     1
  8
VISIBLE_NARROW__ISO_
 10
190.2903719416187869
 20
245.9052103506693925
 30
0.0
 70
    32
  0
VERTEX
  5
8F3
 67
     1
  8
VISIBLE_NARROW__ISO_
 10
190.2879703668156139
 20
245.9156434215354921
 30
0.0
 70
    32
  0
VERTEX
  5
8F4
 67
     1
  8
VISIBLE_NARROW__ISO_
 10
190.2854506817762115
 20
245.9260371223228958
 30
0.0
 70
    32
  0
VERTEX
  5
8F5
 67
     1
  8
VISIBLE_NARROW__ISO_
 10
190.2827735164219121
 20
245.9364308231102996
 30
0.0
 70
    32
  0
VERTEX
  5
8F6
 67
     1
  8
VISIBLE_NARROW__ISO_
 10
190.2799782408314115
 20
245.9467851538190075
 30
0.0
 70
    32
  0
VERTEX
  5
8F7
 67
     1
  8
VISIBLE_NARROW__ISO_
 10
190.2770648550045962
 20
245.9570607443702102
 30
0.0
 70
    32
  0
VERTEX
  5
8F8
 67
     1
  8
VISIBLE_NARROW__ISO_
 10
190.2740333589416082
 20
245.9673363349214128
 30
0.0
 70
    32
  0
VERTEX
  5
8F9
 67
     1
  8
VISIBLE_NARROW__ISO_
 10
190.2708443825636948
 20
245.9775725553938059
 30
0.0
 70
    32
  0
VERTEX
  5
8FA
 67
     1
  8
VISIBLE_NARROW__ISO_
 10
190.2675766660281909
 20
245.9877694057875033
 30
0.0
 70
    32
  0
VERTEX
  5
8FB
 67
     1
  8
VISIBLE_NARROW__ISO_
 10
190.26415146917779
 20
245.9979268861025048
 30
0.0
 70
    32
  0
VERTEX
  5
8FC
 67
     1
  8
VISIBLE_NARROW__ISO_
 10
190.260608162091188
 20
246.0080449963386968
 30
0.0
 70
    32
  0
VERTEX
  5
8FD
 67
     1
  8
VISIBLE_NARROW__ISO_
 10
190.2569073746896038
 20
246.018123736496193
 30
0.0
 70
    32
  0
VERTEX
  5
8FE
 67
     1
  8
VISIBLE_NARROW__ISO_
 10
190.2531278471305995
 20
246.0281237364962124
 30
0.0
 70
    32
  0
VERTEX
  5
8FF
 67
     1
  8
VISIBLE_NARROW__ISO_
 10
190.2492302093353089
 20
246.0380843664173938
 30
0.0
 70
    32
  0
VERTEX
  5
900
 67
     1
  8
VISIBLE_NARROW__ISO_
 10
190.2451750912250077
 20
246.0480056262599078
 30
0.0
 70
    32
  0
VERTEX
  5
901
 67
     1
  8
VISIBLE_NARROW__ISO_
 10
190.2410412329572864
 20
246.0578875160236976
 30
0.0
 70
    32
  0
VERTEX
  5
902
 67
     1
  8
VISIBLE_NARROW__ISO_
 10
190.2367498943746114
 20
246.0676906656300105
 30
0.0
 70
    32
  0
VERTEX
  5
903
 67
     1
  8
VISIBLE_NARROW__ISO_
 10
190.232340445555792
 20
246.0774938152362949
 30
0.0
 70
    32
  0
VERTEX
  5
904
 67
     1
  8
VISIBLE_NARROW__ISO_
 10
190.2278522565794106
 20
246.0871788546064067
 30
0.0
 70
    32
  0
VERTEX
  5
905
 67
     1
  8
VISIBLE_NARROW__ISO_
 10
190.2232065872881037
 20
246.096824523897709
 30
0.0
 70
    32
  0
VERTEX
  5
906
 67
     1
  8
VISIBLE_NARROW__ISO_
 10
190.2184428077605105
 20
246.1064308231104008
 30
0.0
 70
    32
  0
VERTEX
  5
907
 67
     1
  8
VISIBLE_NARROW__ISO_
 10
190.2135609179966877
 20
246.1159583821653882
 30
0.0
 70
    32
  0
VERTEX
  5
908
 67
     1
  8
VISIBLE_NARROW__ISO_
 10
190.2086002880753881
 20
246.1254465711417936
 30
0.0
 70
    32
  0
VERTEX
  5
909
 67
     1
  8
VISIBLE_NARROW__ISO_
 10
190.2034821778391915
 20
246.1348560199606936
 30
0.0
 70
    32
  0
VERTEX
  5
90A
 67
     1
  8
VISIBLE_NARROW__ISO_
 10
190.1982459573667938
 20
246.1442260987008979
 30
0.0
 70
    32
  0
VERTEX
  5
90B
 67
     1
  8
VISIBLE_NARROW__ISO_
 10
190.1929309967368908
 20
246.1535174372835968
 30
0.0
 70
    32
  0
VERTEX
  5
90C
 67
     1
  8
VISIBLE_NARROW__ISO_
 10
190.1874979258707015
 20
246.1627300357087904
 30
0.0
 70
    32
  0
VERTEX
  5
90D
 67
     1
  8
VISIBLE_NARROW__ISO_
 10
190.1819073746895867
 20
246.1718638939765071
 30
0.0
 70
    32
  0
VERTEX
  5
90E
 67
     1
  8
VISIBLE_NARROW__ISO_
 10
190.1762380833509951
 20
246.180958382165386
 30
0.0
 70
    32
  0
VERTEX
  5
90F
 67
     1
  8
VISIBLE_NARROW__ISO_
 10
190.1704506817762024
 20
246.1899741301969016
 30
0.0
 70
    32
  0
VERTEX
  5
910
 67
     1
  8
VISIBLE_NARROW__ISO_
 10
190.1645845400439043
 20
246.1989111380709119
 30
0.0
 70
    32
  0
VERTEX
  5
911
 67
     1
  8
VISIBLE_NARROW__ISO_
 10
190.1585609179967093
 20
246.2077694057875021
 30
0.0
 70
    32
  0
VERTEX
  5
912
 67
     1
  8
VISIBLE_NARROW__ISO_
 10
190.1524585557920091
 20
246.2165883034253113
 30
0.0
 70
    32
  0
VERTEX
  5
913
 67
     1
  8
VISIBLE_NARROW__ISO_
 10
190.146238083350994
 20
246.225289090826891
 30
0.0
 70
    32
  0
VERTEX
  5
914
 67
     1
  8
VISIBLE_NARROW__ISO_
 10
190.1399388707525873
 20
246.2339505081496895
 30
0.0
 70
    32
  0
VERTEX
  5
915
 67
     1
  8
VISIBLE_NARROW__ISO_
 10
190.1334821778391984
 20
246.242493815236287
 30
0.0
 70
    32
  0
VERTEX
  5
916
 67
     1
  8
VISIBLE_NARROW__ISO_
 10
190.1269467447683041
 20
246.2509977522441886
 30
0.0
 70
    32
  0
VERTEX
  5
917
 67
     1
  8
VISIBLE_NARROW__ISO_
 10
190.1203325715399899
 20
246.2593835790158039
 30
0.0
 70
    32
  0
VERTEX
  5
918
 67
     1
  8
VISIBLE_NARROW__ISO_
 10
190.1135609179966934
 20
246.2676906656299991
 30
0.0
 70
    32
  0
VERTEX
  5
919
 67
     1
  8
VISIBLE_NARROW__ISO_
 10
190.1067498943747012
 20
246.275919012086689
 30
0.0
 70
    32
  0
VERTEX
  5
91A
 67
     1
  8
VISIBLE_NARROW__ISO_
 10
190.0997813904376983
 20
246.284068618385902
 30
0.0
 70
    32
  0
VERTEX
  5
91B
 67
     1
  8
VISIBLE_NARROW__ISO_
 10
190.0927341463431048
 20
246.292139484527695
 30
0.0
 70
    32
  0
VERTEX
  5
91C
 67
     1
  8
VISIBLE_NARROW__ISO_
 10
190.085608162091205
 20
246.3001316105118974
 30
0.0
 70
    32
  0
VERTEX
  5
91D
 67
     1
  8
VISIBLE_NARROW__ISO_
 10
190.0783640676029904
 20
246.3080056262600124
 30
0.0
 70
    32
  0
VERTEX
  5
91E
 67
     1
  8
VISIBLE_NARROW__ISO_
 10
190.0710412329572989
 20
246.3158009018505084
 30
0.0
 70
    32
  0
VERTEX
  5
91F
 67
     1
  8
VISIBLE_NARROW__ISO_
 10
190.0636002880754063
 20
246.3235174372836127
 30
0.0
 70
    32
  0
VERTEX
  5
920
 67
     1
  8
VISIBLE_NARROW__ISO_
 10
190.0560806030360936
 20
246.3311552325590981
 30
0.0
 70
    32
  0
VERTEX
  5
921
 67
     1
  8
VISIBLE_NARROW__ISO_
 10
190.0484821778391904
 20
246.338674917598496
 30
0.0
 70
    32
  0
VERTEX
  5
922
 67
     1
  8
VISIBLE_NARROW__ISO_
 10
190.040765642406086
 20
246.3461158624803886
 30
0.0
 70
    32
  0
VERTEX
  5
923
 67
     1
  8
VISIBLE_NARROW__ISO_
 10
190.0329703668155901
 20
246.3534386971261085
 30
0.0
 70
    32
  0
VERTEX
  5
924
 67
     1
  8
VISIBLE_NARROW__ISO_
 10
190.0250569809888077
 20
246.3606827916142947
 30
0.0
 70
    32
  0
VERTEX
  5
925
 67
     1
  8
VISIBLE_NARROW__ISO_
 10
190.0171042250833011
 20
246.3678087758661945
 30
0.0
 70
    32
  0
VERTEX
  5
926
 67
     1
  8
VISIBLE_NARROW__ISO_
 10
190.0090333589415934
 20
246.3748560199607027
 30
0.0
 70
    32
  0
VERTEX
  5
927
 67
     1
  8
VISIBLE_NARROW__ISO_
 10
190.0008837526424088
 20
246.3817851538190098
 30
0.0
 70
    32
  0
VERTEX
  5
928
 67
     1
  8
VISIBLE_NARROW__ISO_
 10
189.9926554061856052
 20
246.3886355475198116
 30
0.0
 70
    32
  0
VERTEX
  5
929
 67
     1
  8
VISIBLE_NARROW__ISO_
 10
189.9843089494927995
 20
246.3953678309842985
 30
0.0
 70
    32
  0
VERTEX
  5
92A
 67
     1
  8
VISIBLE_NARROW__ISO_
 10
189.9759231227210989
 20
246.4020213742915075
 30
0.0
 70
    32
  0
VERTEX
  5
92B
 67
     1
  8
VISIBLE_NARROW__ISO_
 10
189.9674191857131973
 20
246.4085568073622881
 30
0.0
 70
    32
  0
VERTEX
  5
92C
 67
     1
  8
VISIBLE_NARROW__ISO_
 10
189.9588758786265998
 20
246.4149741301968959
 30
0.0
 70
    32
  0
VERTEX
  5
92D
 67
     1
  8
VISIBLE_NARROW__ISO_
 10
189.9502144613038013
 20
246.4213127128741121
 30
0.0
 70
    32
  0
VERTEX
  5
92E
 67
     1
  8
VISIBLE_NARROW__ISO_
 10
189.9415136739021932
 20
246.4275331853150988
 30
0.0
 70
    32
  0
VERTEX
  5
92F
 67
     1
  8
VISIBLE_NARROW__ISO_
 10
189.9327341463431935
 20
246.433635547519799
 30
0.0
 70
    32
  0
VERTEX
  5
930
 67
     1
  8
VISIBLE_NARROW__ISO_
 10
189.9238365085477938
 20
246.439659169566994
 30
0.0
 70
    32
  0
VERTEX
  5
931
 67
     1
  8
VISIBLE_NARROW__ISO_
 10
189.9148995006738119
 20
246.4455253112992921
 30
0.0
 70
    32
  0
VERTEX
  5
932
 67
     1
  8
VISIBLE_NARROW__ISO_
 10
189.9058837526424099
 20
246.4513127128741132
 30
0.0
 70
    32
  0
VERTEX
  5
933
 67
     1
  8
VISIBLE_NARROW__ISO_
 10
189.8968286345321133
 20
246.4569820042127049
 30
0.0
 70
    32
  0
VERTEX
  5
934
 67
     1
  8
VISIBLE_NARROW__ISO_
 10
189.8876554061857007
 20
246.4625331853150954
 30
0.0
 70
    32
  0
VERTEX
  5
935
 67
     1
  8
VISIBLE_NARROW__ISO_
 10
189.8784428077605071
 20
246.4680056262598953
 30
0.0
 70
    32
  0
VERTEX
  5
936
 67
     1
  8
VISIBLE_NARROW__ISO_
 10
189.8691514691778082
 20
246.473320586889912
 30
0.0
 70
    32
  0
VERTEX
  5
937
 67
     1
  8
VISIBLE_NARROW__ISO_
 10
189.8598207605164134
 20
246.4785568073623097
 30
0.0
 70
    32
  0
VERTEX
  5
938
 67
     1
  8
VISIBLE_NARROW__ISO_
 10
189.8503719416187892
 20
246.4836355475198104
 30
0.0
 70
    32
  0
VERTEX
  5
939
 67
     1
  8
VISIBLE_NARROW__ISO_
 10
189.840923122721108
 20
246.4886355475198059
 30
0.0
 70
    32
  0
VERTEX
  5
93A
 67
     1
  8
VISIBLE_NARROW__ISO_
 10
189.8313561935873111
 20
246.4935174372836002
 30
0.0
 70
    32
  0
VERTEX
  5
93B
 67
     1
  8
VISIBLE_NARROW__ISO_
 10
189.8217892644534004
 20
246.4982812168111082
 30
0.0
 70
    32
  0
VERTEX
  5
93C
 67
     1
  8
VISIBLE_NARROW__ISO_
 10
189.8121042250832886
 20
246.5028875160236908
 30
0.0
 70
    32
  0
VERTEX
  5
93D
 67
     1
  8
VISIBLE_NARROW__ISO_
 10
189.8024191857132053
 20
246.5074150750787965
 30
0.0
 70
    32
  0
VERTEX
  5
93E
 67
     1
  8
VISIBLE_NARROW__ISO_
 10
189.7926554061857018
 20
246.5118245238977011
 30
0.0
 70
    32
  0
VERTEX
  5
93F
 67
     1
  8
VISIBLE_NARROW__ISO_
 10
189.7828128865006931
 20
246.5160764924017087
 30
0.0
 70
    32
  0
VERTEX
  5
940
 67
     1
  8
VISIBLE_NARROW__ISO_
 10
189.7729703668155992
 20
246.5202497207480974
 30
0.0
 70
    32
  0
VERTEX
  5
941
 67
     1
  8
VISIBLE_NARROW__ISO_
 10
189.7630491069731136
 20
246.5242654687795891
 30
0.0
 70
    32
  0
VERTEX
  5
942
 67
     1
  8
VISIBLE_NARROW__ISO_
 10
189.7530491069730942
 20
246.5282024766536892
 30
0.0
 70
    32
  0
VERTEX
  5
943
 67
     1
  8
VISIBLE_NARROW__ISO_
 10
189.7430491069731033
 20
246.5319820042126935
 30
0.0
 70
    32
  0
VERTEX
  5
944
 67
     1
  8
VISIBLE_NARROW__ISO_
 10
189.7329703668156071
 20
246.5356434215354966
 30
0.0
 70
    32
  0
VERTEX
  5
945
 67
     1
  8
VISIBLE_NARROW__ISO_
 10
189.7228522565793867
 20
246.5391867286220986
 30
0.0
 70
    32
  0
VERTEX
  5
946
 67
     1
  8
VISIBLE_NARROW__ISO_
 10
189.7127341463431094
 20
246.5426119254724995
 30
0.0
 70
    32
  0
VERTEX
  5
947
 67
     1
  8
VISIBLE_NARROW__ISO_
 10
189.7025372959494973
 20
246.5459190120866992
 30
0.0
 70
    32
  0
VERTEX
  5
948
 67
     1
  8
VISIBLE_NARROW__ISO_
 10
189.6923010754769905
 20
246.5490686183858884
 30
0.0
 70
    32
  0
VERTEX
  5
949
 67
     1
  8
VISIBLE_NARROW__ISO_
 10
189.6820254849257879
 20
246.5521394845276859
 30
0.0
 70
    32
  0
VERTEX
  5
94A
 67
     1
  8
VISIBLE_NARROW__ISO_
 10
189.6717105242958894
 20
246.5550528703543876
 30
0.0
 70
    32
  0
VERTEX
  5
94B
 67
     1
  8
VISIBLE_NARROW__ISO_
 10
189.6613561935872099
 20
246.5578481459450018
 30
0.0
 70
    32
  0
VERTEX
  5
94C
 67
     1
  8
VISIBLE_NARROW__ISO_
 10
189.6510018628785872
 20
246.5604859412206054
 30
0.0
 70
    32
  0
VERTEX
  5
94D
 67
     1
  8
VISIBLE_NARROW__ISO_
 10
189.6405687920124024
 20
246.5630449963387036
 30
0.0
 70
    32
  0
VERTEX
  5
94E
 67
     1
  8
VISIBLE_NARROW__ISO_
 10
189.6301357211463028
 20
246.5654465711417913
 30
0.0
 70
    32
  0
VERTEX
  5
94F
 67
     1
  8
VISIBLE_NARROW__ISO_
 10
189.6196632802013937
 20
246.5677300357087063
 30
0.0
 70
    32
  0
VERTEX
  5
950
 67
     1
  8
VISIBLE_NARROW__ISO_
 10
189.6091514691777888
 20
246.5698953900395054
 30
0.0
 70
    32
  0
VERTEX
  5
951
 67
     1
  8
VISIBLE_NARROW__ISO_
 10
189.5986396581540987
 20
246.5719032640552086
 30
0.0
 70
    32
  0
VERTEX
  5
952
 67
     1
  8
VISIBLE_NARROW__ISO_
 10
189.588088477051798
 20
246.5737930278347108
 30
0.0
 70
    32
  0
VERTEX
  5
953
 67
     1
  8
VISIBLE_NARROW__ISO_
 10
189.5775372959494973
 20
246.5755646813780118
 30
0.0
 70
    32
  0
VERTEX
  5
954
 67
     1
  8
VISIBLE_NARROW__ISO_
 10
189.5669467447683019
 20
246.5772182246851116
 30
0.0
 70
    32
  0
VERTEX
  5
955
 67
     1
  8
VISIBLE_NARROW__ISO_
 10
189.5563168235084959
 20
246.5787142876772862
 30
0.0
 70
    32
  0
VERTEX
  5
956
 67
     1
  8
VISIBLE_NARROW__ISO_
 10
189.5456869022486899
 20
246.5800922404332027
 30
0.0
 70
    32
  0
VERTEX
  5
957
 67
     1
  8
VISIBLE_NARROW__ISO_
 10
189.5350569809887986
 20
246.5813127128741087
 30
0.0
 70
    32
  0
VERTEX
  5
958
 67
     1
  8
VISIBLE_NARROW__ISO_
 10
189.5243876896502115
 20
246.5824544451575946
 30
0.0
 70
    32
  0
VERTEX
  5
959
 67
     1
  8
VISIBLE_NARROW__ISO_
 10
189.513718398311596
 20
246.5834386971260983
 30
0.0
 70
    32
  0
VERTEX
  5
95A
 67
     1
  8
VISIBLE_NARROW__ISO_
 10
189.5030097368943132
 20
246.5842654687795914
 30
0.0
 70
    32
  0
VERTEX
  5
95B
 67
     1
  8
VISIBLE_NARROW__ISO_
 10
189.4923404455558114
 20
246.5850135002756929
 30
0.0
 70
    32
  0
VERTEX
  5
95C
 67
     1
  8
VISIBLE_NARROW__ISO_
 10
189.4816317841385001
 20
246.5856040514568122
 30
0.0
 70
    32
  0
VERTEX
  5
95D
 67
     1
  8
VISIBLE_NARROW__ISO_
 10
189.4709231227211035
 20
246.5860371223228924
 30
0.0
 70
    32
  0
VERTEX
  5
95E
 67
     1
  8
VISIBLE_NARROW__ISO_
 10
189.4602144613037922
 20
246.5863914530316094
 30
0.0
 70
    32
  0
VERTEX
  5
95F
 67
     1
  8
VISIBLE_NARROW__ISO_
 10
189.4494664298076998
 20
246.5865883034252874
 30
0.0
 70
    32
  0
VERTEX
  5
960
 67
     1
  8
VISIBLE_NARROW__ISO_
 10
189.4387577683903885
 20
246.5866276735040117
 30
0.0
 70
    32
  0
SEQEND
  5
961
 67
     1
  8
VISIBLE_NARROW__ISO_
  0
POLYLINE
  5
962
 67
     1
  8
VISIBLE_NARROW__ISO_
 66
     1
 10
0.0
 20
0.0
 30
0.0
 70
     8
  0
VERTEX
  5
963
 67
     1
  8
VISIBLE_NARROW__ISO_
 10
189.4387577683903885
 20
229.8868217679921884
 30
0.0
 70
    32
  0
VERTEX
  5
964
 67
     1
  8
VISIBLE_NARROW__ISO_
 10
189.4494664298076998
 20
229.8868875160237053
 30
0.0
 70
    32
  0
VERTEX
  5
965
 67
     1
  8
VISIBLE_NARROW__ISO_
 10
189.4602144613037922
 20
229.8870843664174117
 30
0.0
 70
    32
  0
VERTEX
  5
966
 67
     1
  8
VISIBLE_NARROW__ISO_
 10
189.4709231227211035
 20
229.8874127128740952
 30
0.0
 70
    32
  0
VERTEX
  5
967
 67
     1
  8
VISIBLE_NARROW__ISO_
 10
189.4816317841385001
 20
229.8878721616929965
 30
0.0
 70
    32
  0
VERTEX
  5
968
 67
     1
  8
VISIBLE_NARROW__ISO_
 10
189.4923404455558114
 20
229.8884631065749033
 30
0.0
 70
    32
  0
VERTEX
  5
969
 67
     1
  8
VISIBLE_NARROW__ISO_
 10
189.5030097368943132
 20
229.8891847601182121
 30
0.0
 70
    32
  0
VERTEX
  5
96A
 67
     1
  8
VISIBLE_NARROW__ISO_
 10
189.513718398311596
 20
229.8900375160237104
 30
0.0
 70
    32
  0
VERTEX
  5
96B
 67
     1
  8
VISIBLE_NARROW__ISO_
 10
189.5243876896502115
 20
229.8910213742913982
 30
0.0
 70
    32
  0
VERTEX
  5
96C
 67
     1
  8
VISIBLE_NARROW__ISO_
 10
189.5350569809887986
 20
229.8921359412206016
 30
0.0
 70
    32
  0
VERTEX
  5
96D
 67
     1
  8
VISIBLE_NARROW__ISO_
 10
189.5456869022486899
 20
229.8933808231103058
 30
0.0
 70
    32
  0
VERTEX
  5
96E
 67
     1
  8
VISIBLE_NARROW__ISO_
 10
189.5563168235084959
 20
229.8947560199607096
 30
0.0
 70
    32
  0
VERTEX
  5
96F
 67
     1
  8
VISIBLE_NARROW__ISO_
 10
189.5669467447683019
 20
229.8962615317718132
 30
0.0
 70
    32
  0
VERTEX
  5
970
 67
     1
  8
VISIBLE_NARROW__ISO_
 10
189.5775372959494973
 20
229.8978969648426016
 30
0.0
 70
    32
  0
VERTEX
  5
971
 67
     1
  8
VISIBLE_NARROW__ISO_
 10
189.588088477051798
 20
229.8996619254724862
 30
0.0
 70
    32
  0
VERTEX
  5
972
 67
     1
  8
VISIBLE_NARROW__ISO_
 10
189.5986396581540987
 20
229.9015568073623115
 30
0.0
 70
    32
  0
VERTEX
  5
973
 67
     1
  8
VISIBLE_NARROW__ISO_
 10
189.6091514691777888
 20
229.903580429409601
 30
0.0
 70
    32
  0
VERTEX
  5
974
 67
     1
  8
VISIBLE_NARROW__ISO_
 10
189.6196632802013937
 20
229.9057327916142981
 30
0.0
 70
    32
  0
VERTEX
  5
975
 67
     1
  8
VISIBLE_NARROW__ISO_
 10
189.6301357211463028
 20
229.9080138939764879
 30
0.0
 70
    32
  0
VERTEX
  5
976
 67
     1
  8
VISIBLE_NARROW__ISO_
 10
189.6405687920124024
 20
229.9104229490945954
 30
0.0
 70
    32
  0
VERTEX
  5
977
 67
     1
  8
VISIBLE_NARROW__ISO_
 10
189.6510018628785872
 20
229.9129599569685922
 30
0.0
 70
    32
  0
VERTEX
  5
978
 67
     1
  8
VISIBLE_NARROW__ISO_
 10
189.6613561935872099
 20
229.9156241301969033
 30
0.0
 70
    32
  0
VERTEX
  5
979
 67
     1
  8
VISIBLE_NARROW__ISO_
 10
189.6717105242958894
 20
229.9184154687796138
 30
0.0
 70
    32
  0
VERTEX
  5
97A
 67
     1
  8
VISIBLE_NARROW__ISO_
 10
189.6820254849257879
 20
229.9213335790159078
 30
0.0
 70
    32
  0
VERTEX
  5
97B
 67
     1
  8
VISIBLE_NARROW__ISO_
 10
189.6923010754769905
 20
229.9243776735040115
 30
0.0
 70
    32
  0
VERTEX
  5
97C
 67
     1
  8
VISIBLE_NARROW__ISO_
 10
189.7025372959494973
 20
229.9275477522442088
 30
0.0
 70
    32
  0
VERTEX
  5
97D
 67
     1
  8
VISIBLE_NARROW__ISO_
 10
189.7127341463431094
 20
229.93084263413391
 30
0.0
 70
    32
  0
VERTEX
  5
97E
 67
     1
  8
VISIBLE_NARROW__ISO_
 10
189.7228522565793867
 20
229.9342627128741015
 30
0.0
 70
    32
  0
VERTEX
  5
97F
 67
     1
  8
VISIBLE_NARROW__ISO_
 10
189.7329703668156071
 20
229.9378068073623069
 30
0.0
 70
    32
  0
VERTEX
  5
980
 67
     1
  8
VISIBLE_NARROW__ISO_
 10
189.7430491069731033
 20
229.9414745238977105
 30
0.0
 70
    32
  0
VERTEX
  5
981
 67
     1
  8
VISIBLE_NARROW__ISO_
 10
189.7530491069730942
 20
229.9452654687796098
 30
0.0
 70
    32
  0
VERTEX
  5
982
 67
     1
  8
VISIBLE_NARROW__ISO_
 10
189.7630491069731136
 20
229.9491788546064015
 30
0.0
 70
    32
  0
VERTEX
  5
983
 67
     1
  8
VISIBLE_NARROW__ISO_
 10
189.7729703668155992
 20
229.9532142876772127
 30
0.0
 70
    32
  0
VERTEX
  5
984
 67
     1
  8
VISIBLE_NARROW__ISO_
 10
189.7828128865006931
 20
229.9573709805906958
 30
0.0
 70
    32
  0
VERTEX
  5
985
 67
     1
  8
VISIBLE_NARROW__ISO_
 10
189.7926554061857018
 20
229.961648933346595
 30
0.0
 70
    32
  0
VERTEX
  5
986
 67
     1
  8
VISIBLE_NARROW__ISO_
 10
189.8024191857132053
 20
229.9660465711417885
 30
0.0
 70
    32
  0
VERTEX
  5
987
 67
     1
  8
VISIBLE_NARROW__ISO_
 10
189.8121042250832886
 20
229.9705635002756878
 30
0.0
 70
    32
  0
VERTEX
  5
988
 67
     1
  8
VISIBLE_NARROW__ISO_
 10
189.8217892644534004
 20
229.975199720748094
 30
0.0
 70
    32
  0
VERTEX
  5
989
 67
     1
  8
VISIBLE_NARROW__ISO_
 10
189.8313561935873111
 20
229.9799536577559991
 30
0.0
 70
    32
  0
VERTEX
  5
98A
 67
     1
  8
VISIBLE_NARROW__ISO_
 10
189.840923122721108
 20
229.9848249175985018
 30
0.0
 70
    32
  0
VERTEX
  5
98B
 67
     1
  8
VISIBLE_NARROW__ISO_
 10
189.8503719416187892
 20
229.9898131065748998
 30
0.0
 70
    32
  0
VERTEX
  5
98C
 67
     1
  8
VISIBLE_NARROW__ISO_
 10
189.8598207605164134
 20
229.9949170435828023
 30
0.0
 70
    32
  0
VERTEX
  5
98D
 67
     1
  8
VISIBLE_NARROW__ISO_
 10
189.8691514691778082
 20
230.0001359412206057
 30
0.0
 70
    32
  0
VERTEX
  5
98E
 67
     1
  8
VISIBLE_NARROW__ISO_
 10
189.8784428077605071
 20
230.005469405787494
 30
0.0
 70
    32
  0
VERTEX
  5
98F
 67
     1
  8
VISIBLE_NARROW__ISO_
 10
189.8876554061857007
 20
230.01091625618119
 30
0.0
 70
    32
  0
VERTEX
  5
990
 67
     1
  8
VISIBLE_NARROW__ISO_
 10
189.8968286345321133
 20
230.016476098700906
 30
0.0
 70
    32
  0
VERTEX
  5
991
 67
     1
  8
VISIBLE_NARROW__ISO_
 10
189.9058837526424099
 20
230.0221477522441944
 30
0.0
 70
    32
  0
VERTEX
  5
992
 67
     1
  8
VISIBLE_NARROW__ISO_
 10
189.9148995006738119
 20
230.0279300357086925
 30
0.0
 70
    32
  0
VERTEX
  5
993
 67
     1
  8
VISIBLE_NARROW__ISO_
 10
189.9238365085477938
 20
230.0338229490945992
 30
0.0
 70
    32
  0
VERTEX
  5
994
 67
     1
  8
VISIBLE_NARROW__ISO_
 10
189.9327341463431935
 20
230.0398249175985086
 30
0.0
 70
    32
  0
VERTEX
  5
995
 67
     1
  8
VISIBLE_NARROW__ISO_
 10
189.9415136739021932
 20
230.0459355475198038
 30
0.0
 70
    32
  0
VERTEX
  5
996
 67
     1
  8
VISIBLE_NARROW__ISO_
 10
189.9502144613038013
 20
230.0521532640551925
 30
0.0
 70
    32
  0
VERTEX
  5
997
 67
     1
  8
VISIBLE_NARROW__ISO_
 10
189.9588758786265998
 20
230.0584776735040009
 30
0.0
 70
    32
  0
VERTEX
  5
998
 67
     1
  8
VISIBLE_NARROW__ISO_
 10
189.9674191857131973
 20
230.0649075947638948
 30
0.0
 70
    32
  0
VERTEX
  5
999
 67
     1
  8
VISIBLE_NARROW__ISO_
 10
189.9759231227210989
 20
230.071442240433214
 30
0.0
 70
    32
  0
VERTEX
  5
99A
 67
     1
  8
VISIBLE_NARROW__ISO_
 10
189.9843089494927995
 20
230.0780804294095105
 30
0.0
 70
    32
  0
VERTEX
  5
99B
 67
     1
  8
VISIBLE_NARROW__ISO_
 10
189.9926554061856052
 20
230.0848213742914083
 30
0.0
 70
    32
  0
VERTEX
  5
99C
 67
     1
  8
VISIBLE_NARROW__ISO_
 10
190.0008837526424088
 20
230.091663893976488
 30
0.0
 70
    32
  0
VERTEX
  5
99D
 67
     1
  8
VISIBLE_NARROW__ISO_
 10
190.0090333589415934
 20
230.0986072010630892
 30
0.0
 70
    32
  0
VERTEX
  5
99E
 67
     1
  8
VISIBLE_NARROW__ISO_
 10
190.0171042250833011
 20
230.1056497207480902
 30
0.0
 70
    32
  0
VERTEX
  5
99F
 67
     1
  8
VISIBLE_NARROW__ISO_
 10
190.0250569809888077
 20
230.1127910593307888
 30
0.0
 70
    32
  0
VERTEX
  5
9A0
 67
     1
  8
VISIBLE_NARROW__ISO_
 10
190.0329703668155901
 20
230.1200296420080065
 30
0.0
 70
    32
  0
VERTEX
  5
9A1
 67
     1
  8
VISIBLE_NARROW__ISO_
 10
190.040765642406086
 20
230.1273646813779976
 30
0.0
 70
    32
  0
VERTEX
  5
9A2
 67
     1
  8
VISIBLE_NARROW__ISO_
 10
190.0484821778391904
 20
230.1347949963387123
 30
0.0
 70
    32
  0
VERTEX
  5
9A3
 67
     1
  8
VISIBLE_NARROW__ISO_
 10
190.0560806030360936
 20
230.1423194057875037
 30
0.0
 70
    32
  0
VERTEX
  5
9A4
 67
     1
  8
VISIBLE_NARROW__ISO_
 10
190.0636002880754063
 20
230.1499367286222082
 30
0.0
 70
    32
  0
VERTEX
  5
9A5
 67
     1
  8
VISIBLE_NARROW__ISO_
 10
190.0710412329572989
 20
230.1576457837402074
 30
0.0
 70
    32
  0
VERTEX
  5
9A6
 67
     1
  8
VISIBLE_NARROW__ISO_
 10
190.0783640676029904
 20
230.165446571141814
 30
0.0
 70
    32
  0
VERTEX
  5
9A7
 67
     1
  8
VISIBLE_NARROW__ISO_
 10
190.085608162091205
 20
230.173336334921288
 30
0.0
 70
    32
  0
VERTEX
  5
9A8
 67
     1
  8
VISIBLE_NARROW__ISO_
 10
190.0927341463431048
 20
230.181312712874103
 30
0.0
 70
    32
  0
VERTEX
  5
9A9
 67
     1
  8
VISIBLE_NARROW__ISO_
 10
190.0997813904376983
 20
230.1893796420079923
 30
0.0
 70
    32
  0
VERTEX
  5
9AA
 67
     1
  8
VISIBLE_NARROW__ISO_
 10
190.1067498943747012
 20
230.1975292483072053
 30
0.0
 70
    32
  0
VERTEX
  5
9AB
 67
     1
  8
VISIBLE_NARROW__ISO_
 10
190.1135609179966934
 20
230.2057654687795889
 30
0.0
 70
    32
  0
VERTEX
  5
9AC
 67
     1
  8
VISIBLE_NARROW__ISO_
 10
190.1203325715399899
 20
230.2140843664174099
 30
0.0
 70
    32
  0
VERTEX
  5
9AD
 67
     1
  8
VISIBLE_NARROW__ISO_
 10
190.1269467447683041
 20
230.2224859412206115
 30
0.0
 70
    32
  0
VERTEX
  5
9AE
 67
     1
  8
VISIBLE_NARROW__ISO_
 10
190.1334821778391984
 20
230.2309662561812047
 30
0.0
 70
    32
  0
VERTEX
  5
9AF
 67
     1
  8
VISIBLE_NARROW__ISO_
 10
190.1399388707525873
 20
230.2395292483072069
 30
0.0
 70
    32
  0
VERTEX
  5
9B0
 67
     1
  8
VISIBLE_NARROW__ISO_
 10
190.146238083350994
 20
230.2481709805906007
 30
0.0
 70
    32
  0
VERTEX
  5
9B1
 67
     1
  8
VISIBLE_NARROW__ISO_
 10
190.1524585557920091
 20
230.2568875160237098
 30
0.0
 70
    32
  0
VERTEX
  5
9B2
 67
     1
  8
VISIBLE_NARROW__ISO_
 10
190.1585609179967093
 20
230.2656788546063922
 30
0.0
 70
    32
  0
VERTEX
  5
9B3
 67
     1
  8
VISIBLE_NARROW__ISO_
 10
190.1645845400439043
 20
230.2745489333466082
 30
0.0
 70
    32
  0
VERTEX
  5
9B4
 67
     1
  8
VISIBLE_NARROW__ISO_
 10
190.1704506817762024
 20
230.2834898782284085
 30
0.0
 70
    32
  0
VERTEX
  5
9B5
 67
     1
  8
VISIBLE_NARROW__ISO_
 10
190.1762380833509951
 20
230.292501689251992
 30
0.0
 70
    32
  0
VERTEX
  5
9B6
 67
     1
  8
VISIBLE_NARROW__ISO_
 10
190.1819073746895867
 20
230.3015843664173872
 30
0.0
 70
    32
  0
VERTEX
  5
9B7
 67
     1
  8
VISIBLE_NARROW__ISO_
 10
190.1874979258707015
 20
230.3107379097245087
 30
0.0
 70
    32
  0
VERTEX
  5
9B8
 67
     1
  8
VISIBLE_NARROW__ISO_
 10
190.1929309967368908
 20
230.3199583821655096
 30
0.0
 70
    32
  0
VERTEX
  5
9B9
 67
     1
  8
VISIBLE_NARROW__ISO_
 10
190.1982459573667938
 20
230.3292457837401912
 30
0.0
 70
    32
  0
VERTEX
  5
9BA
 67
     1
  8
VISIBLE_NARROW__ISO_
 10
190.2034821778391915
 20
230.3385961774409907
 30
0.0
 70
    32
  0
VERTEX
  5
9BB
 67
     1
  8
VISIBLE_NARROW__ISO_
 10
190.2086002880753881
 20
230.3480095632677944
 30
0.0
 70
    32
  0
VERTEX
  5
9BC
 67
     1
  8
VISIBLE_NARROW__ISO_
 10
190.2135609179966877
 20
230.3574859412206024
 30
0.0
 70
    32
  0
VERTEX
  5
9BD
 67
     1
  8
VISIBLE_NARROW__ISO_
 10
190.2184428077605105
 20
230.3670253112993009
 30
0.0
 70
    32
  0
VERTEX
  5
9BE
 67
     1
  8
VISIBLE_NARROW__ISO_
 10
190.2232065872881037
 20
230.3766237364961
 30
0.0
 70
    32
  0
VERTEX
  5
9BF
 67
     1
  8
VISIBLE_NARROW__ISO_
 10
190.2278522565794106
 20
230.3862772798032097
 30
0.0
 70
    32
  0
VERTEX
  5
9C0
 67
     1
  8
VISIBLE_NARROW__ISO_
 10
190.232340445555792
 20
230.3959898782283915
 30
0.0
 70
    32
  0
VERTEX
  5
9C1
 67
     1
  8
VISIBLE_NARROW__ISO_
 10
190.2367498943746114
 20
230.4057536577560086
 30
0.0
 70
    32
  0
VERTEX
  5
9C2
 67
     1
  8
VISIBLE_NARROW__ISO_
 10
190.2410412329572864
 20
230.4155725553937941
 30
0.0
 70
    32
  0
VERTEX
  5
9C3
 67
     1
  8
VISIBLE_NARROW__ISO_
 10
190.2451750912250077
 20
230.4254465711418902
 30
0.0
 70
    32
  0
VERTEX
  5
9C4
 67
     1
  8
VISIBLE_NARROW__ISO_
 10
190.2492302093353089
 20
230.4353678309844042
 30
0.0
 70
    32
  0
VERTEX
  5
9C5
 67
     1
  8
VISIBLE_NARROW__ISO_
 10
190.2531278471305995
 20
230.4453402719292114
 30
0.0
 70
    32
  0
VERTEX
  5
9C6
 67
     1
  8
VISIBLE_NARROW__ISO_
 10
190.2569073746896038
 20
230.4553599569686071
 30
0.0
 70
    32
  0
VERTEX
  5
9C7
 67
     1
  8
VISIBLE_NARROW__ISO_
 10
190.260608162091188
 20
230.4654229490946022
 30
0.0
 70
    32
  0
VERTEX
  5
9C8
 67
     1
  8
VISIBLE_NARROW__ISO_
 10
190.26415146917779
 20
230.4755331853149869
 30
0.0
 70
    32
  0
VERTEX
  5
9C9
 67
     1
  8
VISIBLE_NARROW__ISO_
 10
190.2675766660281909
 20
230.4856827916142947
 30
0.0
 70
    32
  0
VERTEX
  5
9CA
 67
     1
  8
VISIBLE_NARROW__ISO_
 10
190.2708443825636948
 20
230.4958796420079921
 30
0.0
 70
    32
  0
VERTEX
  5
9CB
 67
     1
  8
VISIBLE_NARROW__ISO_
 10
190.2740333589416082
 20
230.5061119254725099
 30
0.0
 70
    32
  0
VERTEX
  5
9CC
 67
     1
  8
VISIBLE_NARROW__ISO_
 10
190.2770648550045962
 20
230.5163835790158089
 30
0.0
 70
    32
  0
VERTEX
  5
9CD
 67
     1
  8
VISIBLE_NARROW__ISO_
 10
190.2799782408314115
 20
230.5266946026378889
 30
0.0
 70
    32
  0
VERTEX
  5
9CE
 67
     1
  8
VISIBLE_NARROW__ISO_
 10
190.2827735164219121
 20
230.5370371223228858
 30
0.0
 70
    32
  0
VERTEX
  5
9CF
 67
     1
  8
VISIBLE_NARROW__ISO_
 10
190.2854506817762115
 20
230.5474150750787885
 30
0.0
 70
    32
  0
VERTEX
  5
9D0
 67
     1
  8
VISIBLE_NARROW__ISO_
 10
190.2879703668156139
 20
230.5578245238976933
 30
0.0
 70
    32
  0
VERTEX
  5
9D1
 67
     1
  8
VISIBLE_NARROW__ISO_
 10
190.2903719416187869
 20
230.5682654687796003
 30
0.0
 70
    32
  0
VERTEX
  5
9D2
 67
     1
  8
VISIBLE_NARROW__ISO_
 10
190.2926554061857018
 20
230.5787379097245093
 30
0.0
 70
    32
  0
VERTEX
  5
9D3
 67
     1
  8
VISIBLE_NARROW__ISO_
 10
190.2948207605163873
 20
230.5892339727166132
 30
0.0
 70
    32
  0
VERTEX
  5
9D4
 67
     1
  8
VISIBLE_NARROW__ISO_
 10
190.2968286345322042
 20
230.5997575947639007
 30
0.0
 70
    32
  0
VERTEX
  5
9D5
 67
     1
  8
VISIBLE_NARROW__ISO_
 10
190.2987577683904021
 20
230.6103048388584114
 30
0.0
 70
    32
  0
VERTEX
  5
9D6
 67
     1
  8
VISIBLE_NARROW__ISO_
 10
190.3004900518550073
 20
230.6208757050000884
 30
0.0
 70
    32
  0
VERTEX
  5
9D7
 67
     1
  8
VISIBLE_NARROW__ISO_
 10
190.3021435951621072
 20
230.6314662561811986
 30
0.0
 70
    32
  0
VERTEX
  5
9D8
 67
     1
  8
VISIBLE_NARROW__ISO_
 10
190.3036396581541965
 20
230.6420804294095035
 30
0.0
 70
    32
  0
VERTEX
  5
9D9
 67
     1
  8
VISIBLE_NARROW__ISO_
 10
190.305017610910113
 20
230.6527064136614911
 30
0.0
 70
    32
  0
VERTEX
  5
9DA
 67
     1
  8
VISIBLE_NARROW__ISO_
 10
190.3062774534298001
 20
230.6633520829527981
 30
0.0
 70
    32
  0
VERTEX
  5
9DB
 67
     1
  8
VISIBLE_NARROW__ISO_
 10
190.3073798156345049
 20
230.6740135002756915
 30
0.0
 70
    32
  0
VERTEX
  5
9DC
 67
     1
  8
VISIBLE_NARROW__ISO_
 10
190.3083640676030086
 20
230.684686728622097
 30
0.0
 70
    32
  0
VERTEX
  5
9DD
 67
     1
  8
VISIBLE_NARROW__ISO_
 10
190.3092302093353112
 20
230.6953717679922136
 30
0.0
 70
    32
  0
VERTEX
  5
9DE
 67
     1
  8
VISIBLE_NARROW__ISO_
 10
190.3099388707526032
 20
230.7060686183858991
 30
0.0
 70
    32
  0
VERTEX
  5
9DF
 67
     1
  8
VISIBLE_NARROW__ISO_
 10
190.310529421933694
 20
230.716773342795392
 30
0.0
 70
    32
  0
VERTEX
  5
9E0
 67
     1
  8
VISIBLE_NARROW__ISO_
 10
190.3110018628786122
 20
230.7274820042127033
 30
0.0
 70
    32
  0
VERTEX
  5
9E1
 67
     1
  8
VISIBLE_NARROW__ISO_
 10
190.3113168235084913
 20
230.7381985396457935
 30
0.0
 70
    32
  0
VERTEX
  5
9E2
 67
     1
  8
VISIBLE_NARROW__ISO_
 10
190.3115136739021978
 20
230.7489190120867022
 30
0.0
 70
    32
  0
VERTEX
  5
9E3
 67
     1
  8
VISIBLE_NARROW__ISO_
 10
190.3115924140597031
 20
230.7596394845276109
 30
0.0
 70
    32
  0
SEQEND
  5
9E4
 67
     1
  8
VISIBLE_NARROW__ISO_
  0
LINE
  5
9E5
 67
     1
  8
VISIBLE_NARROW__ISO_
 10
190.3115787503035108
 20
230.7596396081644059
 30
0.0
 11
190.3115787503035108
 21
245.7138243621187996
 31
0.0
  0
ENDSEC
  0
EOF
