  0
SECTION
  2
HEADER
  9
$ACADVER
  1
AC1009
  9
$INSBASE
 10
0.0
 20
0.0
 30
0.0
  9
$EXTMIN
 10
6.1664500000000002
 20
4.643616093396985
 30
0.0
  9
$EXTMAX
 10
644.3233690821814434
 20
428.8190601869438865
 30
0.0
  9
$LIMMIN
 10
0.0
 20
0.0
  9
$LIMMAX
 10
12.0
 20
9.0
  9
$ORTHOMODE
 70
     0
  9
$REGENMODE
 70
     1
  9
$FILLMODE
 70
     1
  9
$QTEXTMODE
 70
     0
  9
$MIRRTEXT
 70
     0
  9
$DRAGMODE
 70
     2
  9
$LTSCALE
 40
1.0
  9
$OSMODE
 70
   695
  9
$ATTMODE
 70
     1
  9
$TEXTSIZE
 40
0.2
  9
$TRACEWID
 40
0.05
  9
$TEXTSTYLE
  7
STANDARD
  9
$CLAYER
  8
0
  9
$CELTYPE
  6
BYLAYER
  9
$CECOLOR
 62
   256
  9
$DIMSCALE
 40
1.0
  9
$DIMASZ
 40
0.18
  9
$DIMEXO
 40
0.0625
  9
$DIMDLI
 40
0.38
  9
$DIMRND
 40
0.0
  9
$DIMDLE
 40
0.0
  9
$DIMEXE
 40
0.18
  9
$DIMTP
 40
0.0
  9
$DIMTM
 40
0.0
  9
$DIMTXT
 40
0.18
  9
$DIMCEN
 40
0.09
  9
$DIMTSZ
 40
0.0
  9
$DIMTOL
 70
     0
  9
$DIMLIM
 70
     0
  9
$DIMTIH
 70
     1
  9
$DIMTOH
 70
     1
  9
$DIMSE1
 70
     0
  9
$DIMSE2
 70
     0
  9
$DIMTAD
 70
     0
  9
$DIMZIN
 70
     0
  9
$DIMBLK
  1

  9
$DIMASO
 70
     1
  9
$DIMSHO
 70
     1
  9
$DIMPOST
  1

  9
$DIMAPOST
  1

  9
$DIMALT
 70
     0
  9
$DIMALTD
 70
     2
  9
$DIMALTF
 40
25.3999999999999986
  9
$DIMLFAC
 40
1.0
  9
$DIMTOFL
 70
     0
  9
$DIMTVP
 40
0.0
  9
$DIMTIX
 70
     0
  9
$DIMSOXD
 70
     0
  9
$DIMSAH
 70
     0
  9
$DIMBLK1
  1

  9
$DIMBLK2
  1

  9
$DIMSTYLE
  2
STANDARD
  9
$DIMCLRD
 70
     0
  9
$DIMCLRE
 70
     0
  9
$DIMCLRT
 70
     0
  9
$DIMTFAC
 40
1.0
  9
$DIMGAP
 40
0.09
  9
$LUNITS
 70
     2
  9
$LUPREC
 70
     4
  9
$SKETCHINC
 40
0.1
  9
$FILLETRAD
 40
0.0
  9
$AUNITS
 70
     0
  9
$AUPREC
 70
     0
  9
$MENU
  1
.
  9
$ELEVATION
 40
0.0
  9
$PELEVATION
 40
0.0
  9
$THICKNESS
 40
0.0
  9
$LIMCHECK
 70
     0
  9
$BLIPMODE
 70
     0
  9
$CHAMFERA
 40
0.0
  9
$CHAMFERB
 40
0.0
  9
$SKPOLY
 70
     0
  9
$TDCREATE
 40
2459084.5357175930403173
  9
$TDUPDATE
 40
2459084.5567476861178875
  9
$TDINDWG
 40
0.0026736111
  9
$TDUSRTIMER
 40
0.0026736111
  9
$USRTIMER
 70
     1
  9
$ANGBASE
 50
0.0
  9
$ANGDIR
 70
     0
  9
$PDMODE
 70
     0
  9
$PDSIZE
 40
0.0
  9
$PLINEWID
 40
0.0
  9
$COORDS
 70
     1
  9
$SPLFRAME
 70
     0
  9
$SPLINETYPE
 70
     6
  9
$SPLINESEGS
 70
     8
  9
$ATTDIA
 70
     1
  9
$ATTREQ
 70
     1
  9
$HANDLING
 70
     1
  9
$HANDSEED
  5
A67
  9
$SURFTAB1
 70
     6
  9
$SURFTAB2
 70
     6
  9
$SURFTYPE
 70
     6
  9
$SURFU
 70
     6
  9
$SURFV
 70
     6
  9
$UCSNAME
  2

  9
$UCSORG
 10
0.0
 20
0.0
 30
0.0
  9
$UCSXDIR
 10
1.0
 20
0.0
 30
0.0
  9
$UCSYDIR
 10
0.0
 20
1.0
 30
0.0
  9
$PUCSNAME
  2

  9
$PUCSORG
 10
0.0
 20
0.0
 30
0.0
  9
$PUCSXDIR
 10
1.0
 20
0.0
 30
0.0
  9
$PUCSYDIR
 10
0.0
 20
1.0
 30
0.0
  9
$USERI1
 70
     0
  9
$USERI2
 70
     0
  9
$USERI3
 70
     0
  9
$USERI4
 70
     0
  9
$USERI5
 70
     0
  9
$USERR1
 40
0.0
  9
$USERR2
 40
0.0
  9
$USERR3
 40
0.0
  9
$USERR4
 40
0.0
  9
$USERR5
 40
0.0
  9
$WORLDVIEW
 70
     1
  9
$SHADEDGE
 70
     3
  9
$SHADEDIF
 70
    70
  9
$TILEMODE
 70
     0
  9
$MAXACTVP
 70
    64
  9
$PLIMCHECK
 70
     0
  9
$PEXTMIN
 10
688.0025605454776496
 20
117.3152117669549028
 30
0.0
  9
$PEXTMAX
 10
713.1268489862924298
 20
134.0150324005591074
 30
0.0
  9
$PLIMMIN
 10
0.0
 20
0.0
  9
$PLIMMAX
 10
12.0
 20
9.0
  9
$UNITMODE
 70
     0
  9
$VISRETAIN
 70
     1
  9
$PLINEGEN
 70
     0
  9
$PSLTSCALE
 70
     1
  0
ENDSEC
  0
SECTION
  2
TABLES
  0
TABLE
  2
VPORT
 70
     1
  0
VPORT
  2
*ACTIVE
 70
     0
 10
0.0
 20
0.0
 11
1.0
 21
1.0
 12
194.3305491277274086
 22
155.3040039229937008
 13
0.0
 23
0.0
 14
0.5
 24
0.5
 15
0.5
 25
0.5
 16
0.0
 26
0.0
 36
1.0
 17
0.0
 27
0.0
 37
0.0
 40
23.4958353288913493
 41
1.960426179604261
 42
50.0
 43
0.0
 44
0.0
 50
0.0
 51
0.0
 71
     0
 72
  1000
 73
     1
 74
     3
 75
     0
 76
     0
 77
     0
 78
     0
  0
ENDTAB
  0
TABLE
  2
LTYPE
 70
     1
  0
LTYPE
  2
CONTINUOUS
 70
     0
  3
Solid line
 72
    65
 73
     0
 40
0.0
  0
ENDTAB
  0
TABLE
  2
LAYER
 70
     3
  0
LAYER
  2
0
 70
     0
 62
     7
  6
CONTINUOUS
  0
LAYER
  2
VISIBLE_NARROW__ISO_
 70
     0
 62
     7
  6
CONTINUOUS
  0
LAYER
  2
DEFPOINTS
 70
     0
 62
     7
  6
CONTINUOUS
  0
ENDTAB
  0
TABLE
  2
STYLE
 70
     4
  0
STYLE
  2
STANDARD
 70
     0
 40
0.0
 41
1.0
 50
0.0
 71
     0
 42
0.2
  3
txt
  4

  0
STYLE
  2
ANNOTATIVE
 70
     0
 40
0.0
 41
1.0
 50
0.0
 71
     0
 42
0.2
  3
txt
  4

  0
STYLE
  2
NOTE_TEXT__ISO_
 70
     0
 40
0.0
 41
1.0
 50
0.0
 71
     0
 42
0.2
  3
txt
  4

  0
STYLE
  2
TEXT_3_5MM
 70
     0
 40
0.0
 41
0.899999976158142
 50
0.0
 71
     0
 42
0.2
  3
txt
  4

  0
ENDTAB
  0
TABLE
  2
VIEW
 70
     2
  0
ENDTAB
  0
TABLE
  2
UCS
 70
     0
  0
ENDTAB
  0
TABLE
  2
APPID
 70
     5
  0
APPID
  2
ACAD
 70
     0
  0
APPID
  2
ACADANNOTATIVE
 70
     0
  0
APPID
  2
ACAD_NAV_VCDISPLAY
 70
     0
  0
APPID
  2
ACAD_PSEXT
 70
     0
  0
APPID
  2
ACAD_MLEADERVER
 70
     0
  0
ENDTAB
  0
TABLE
  2
DIMSTYLE
 70
     4
  0
DIMSTYLE
  2
STANDARD
 70
     0
  3

  4

  5

  6

  7

 40
1.0
 41
0.18
 42
0.0625
 43
0.38
 44
0.18
 45
0.0
 46
0.0
 47
0.0
 48
0.0
140
0.18
141
0.09
142
0.0
143
25.3999999999999986
144
1.0
145
0.0
146
1.0
147
0.09
 71
     0
 72
     0
 73
     1
 74
     1
 75
     0
 76
     0
 77
     0
 78
     0
170
     0
171
     2
172
     0
173
     0
174
     0
175
     0
176
     0
177
     0
178
     0
  0
DIMSTYLE
  2
ANNOTATIVE
 70
     0
  3

  4

  5

  6

  7

 40
1.0
 41
0.18
 42
0.0625
 43
0.38
 44
0.18
 45
0.0
 46
0.0
 47
0.0
 48
0.0
140
0.18
141
0.09
142
0.0
143
25.3999999999999986
144
1.0
145
0.0
146
1.0
147
0.09
 71
     0
 72
     0
 73
     1
 74
     1
 75
     0
 76
     0
 77
     0
 78
     0
170
     0
171
     2
172
     0
173
     0
174
     0
175
     0
176
     0
177
     0
178
     0
  0
DIMSTYLE
  2
DEFAULT_-_MM__IN___ISO_
 70
     0
  3

  4
 in
  5

  6

  7

 40
5.0
 41
2.5
 42
0.0
 43
5.9999999999999991
 44
3.174999999999998
 45
0.00000001
 46
10.0
 47
0.0
 48
0.0
140
3.5
141
0.09
142
0.0
143
0.03937
144
1.0
145
0.0
146
1.0
147
0.762
 71
     0
 72
     0
 73
     0
 74
     0
 75
     0
 76
     0
 77
     1
 78
     8
170
     1
171
     3
172
     1
173
     0
174
     0
175
     0
176
   256
177
   256
178
     7
  0
DIMSTYLE
  2
KS-STANDARD
 70
     0
  3

  4

  5

  6

  7

 40
5.0
 41
2.5
 42
1.0
 43
12.0
 44
2.0
 45
0.00000001
 46
10.0
 47
0.0
 48
0.0
140
2.5
141
0.09
142
0.0
143
0.03937
144
1.0
145
0.0
146
1.0
147
0.8
 71
     0
 72
     0
 73
     0
 74
     0
 75
     0
 76
     0
 77
     1
 78
     8
170
     0
171
     3
172
     1
173
     0
174
     0
175
     0
176
     7
177
     7
178
     7
  0
ENDTAB
  0
ENDSEC
  0
SECTION
  2
BLOCKS
  0
BLOCK
  8
0
  2
$MODEL_SPACE
 70
     0
 10
0.0
 20
0.0
 30
0.0
  3
$MODEL_SPACE
  1

  0
ENDBLK
  5
5A6
  8
0
  0
BLOCK
 67
     1
  8
0
  2
$PAPER_SPACE
 70
     0
 10
0.0
 20
0.0
 30
0.0
  3
$PAPER_SPACE
  1

  0
ENDBLK
  5
5A2
 67
     1
  8
0
  0
BLOCK
  8
0
  2
*D2
 70
     1
 10
0.0
 20
0.0
 30
0.0
  3
*D2
  1

  0
LINE
  5
5C9
  8
0
 62
     0
 10
688.0025608668366885
 20
127.2034299661572021
 30
0.0
 11
688.0025608668366885
 21
126.4186936647164003
 31
0.0
  0
LINE
  5
5CA
  8
0
 62
     0
 10
713.1268489862924298
 20
127.2034299661573016
 30
0.0
 11
713.1268489862924298
 21
126.4186936647164003
 31
0.0
  0
LINE
  5
5CB
  8
0
 62
     0
 10
688.1825608668367522
 20
126.598693664716393
 30
0.0
 11
699.9647049265646501
 21
126.598693664716393
 31
0.0
  0
LINE
  5
5CC
  8
0
 62
     0
 10
712.9468489862923661
 20
126.598693664716393
 30
0.0
 11
701.1647049265646956
 21
126.598693664716393
 31
0.0
  0
SOLID
  5
5CD
  8
0
 62
     0
 10
688.1825608668367522
 20
126.6286936647163941
 30
0.0
 11
688.1825608668367522
 21
126.568693664716406
 31
0.0
 12
688.0025608668366885
 22
126.598693664716393
 32
0.0
 13
688.0025608668366885
 23
126.598693664716393
 33
0.0
  0
SOLID
  5
5CE
  8
0
 62
     0
 10
712.9468489862923661
 20
126.6286936647163941
 30
0.0
 11
712.9468489862923661
 21
126.568693664716406
 31
0.0
 12
713.1268489862924298
 22
126.598693664716393
 32
0.0
 13
713.1268489862924298
 23
126.598693664716393
 33
0.0
  0
INSERT
  5
5CF
  8
0
  2
*U4
 10
0.0
 20
0.0
 30
0.0
  0
POINT
  5
5D0
  8
DEFPOINTS
 62
     0
 10
688.0025608668366885
 20
127.2659299661572021
 30
0.0
  0
POINT
  5
5D1
  8
DEFPOINTS
 62
     0
 10
713.1268489862924298
 20
127.2659299661573016
 30
0.0
  0
POINT
  5
5D2
  8
DEFPOINTS
 62
     0
 10
713.1268489862924298
 20
126.598693664716393
 30
0.0
  0
ENDBLK
  5
5BE
  8
0
  0
BLOCK
  8
0
  2
*U4
 70
     1
 10
0.0
 20
0.0
 30
0.0
  3
*U4
  1

  0
TEXT
  5
A64
  8
0
 62
     0
 10
700.0547049265645683
 20
126.5086936647164038
 30
0.0
 40
0.18
  1
25.1243
  0
ENDBLK
  5
A66
  8
0
  0
ENDSEC
  0
SECTION
  2
ENTITIES
  0
LINE
  5
7F0
  8
VISIBLE_NARROW__ISO_
 10
203.2365229968847018
 20
164.3443719884137977
 30
0.0
 11
179.8578707570788993
 21
164.3443719884139114
 31
0.0
  0
POLYLINE
  5
7F1
  8
VISIBLE_NARROW__ISO_
 66
     1
 10
0.0
 20
0.0
 30
0.0
 70
     8
  0
VERTEX
  5
7F2
  8
VISIBLE_NARROW__ISO_
 10
179.8578713935326903
 20
164.3443613773793004
 30
0.0
 70
    32
  0
VERTEX
  5
7F3
  8
VISIBLE_NARROW__ISO_
 10
179.84715092109181
 20
164.3443220073004909
 30
0.0
 70
    32
  0
VERTEX
  5
7F4
  8
VISIBLE_NARROW__ISO_
 10
179.8364304486507876
 20
164.3441251569068129
 30
0.0
 70
    32
  0
VERTEX
  5
7F5
  8
VISIBLE_NARROW__ISO_
 10
179.8257139132178111
 20
164.3437708261980958
 30
0.0
 70
    32
  0
VERTEX
  5
7F6
  8
VISIBLE_NARROW__ISO_
 10
179.8150052518003861
 20
164.3433377553319872
 30
0.0
 70
    32
  0
VERTEX
  5
7F7
  8
VISIBLE_NARROW__ISO_
 10
179.8043005273910069
 20
164.3427472041508963
 30
0.0
 70
    32
  0
VERTEX
  5
7F8
  8
VISIBLE_NARROW__ISO_
 10
179.793603676997293
 20
164.3419991726549085
 30
0.0
 70
    32
  0
VERTEX
  5
7F9
  8
VISIBLE_NARROW__ISO_
 10
179.7829186376272901
 20
164.3411724010013018
 30
0.0
 70
    32
  0
VERTEX
  5
7FA
  8
VISIBLE_NARROW__ISO_
 10
179.7722454092807993
 20
164.340188149032798
 30
0.0
 70
    32
  0
VERTEX
  5
7FB
  8
VISIBLE_NARROW__ISO_
 10
179.7615839919579912
 20
164.3390464167493121
 30
0.0
 70
    32
  0
VERTEX
  5
7FC
  8
VISIBLE_NARROW__ISO_
 10
179.7509383226665989
 20
164.3378259443084062
 30
0.0
 70
    32
  0
VERTEX
  5
7FD
  8
VISIBLE_NARROW__ISO_
 10
179.7403084014067076
 20
164.3364479915524896
 30
0.0
 70
    32
  0
VERTEX
  5
7FE
  8
VISIBLE_NARROW__ISO_
 10
179.7296981651863064
 20
164.3349125584815908
 30
0.0
 70
    32
  0
VERTEX
  5
7FF
  8
VISIBLE_NARROW__ISO_
 10
179.7191076140051962
 20
164.3332983852533005
 30
0.0
 70
    32
  0
VERTEX
  5
800
  8
VISIBLE_NARROW__ISO_
 10
179.7085367478634907
 20
164.3315267317099995
 30
0.0
 70
    32
  0
VERTEX
  5
801
  8
VISIBLE_NARROW__ISO_
 10
179.6979895037690085
 20
164.3296369679304973
 30
0.0
 70
    32
  0
VERTEX
  5
802
  8
VISIBLE_NARROW__ISO_
 10
179.6874658817216925
 20
164.3276290939147088
 30
0.0
 70
    32
  0
VERTEX
  5
803
  8
VISIBLE_NARROW__ISO_
 10
179.6769658817217135
 20
164.325463739583995
 30
0.0
 70
    32
  0
VERTEX
  5
804
  8
VISIBLE_NARROW__ISO_
 10
179.6664973777847081
 20
164.3231802750171084
 30
0.0
 70
    32
  0
VERTEX
  5
805
  8
VISIBLE_NARROW__ISO_
 10
179.6560564329028011
 20
164.3207787002139071
 30
0.0
 70
    32
  0
VERTEX
  5
806
  8
VISIBLE_NARROW__ISO_
 10
179.6456469840838963
 20
164.3182196450958088
 30
0.0
 70
    32
  0
VERTEX
  5
807
  8
VISIBLE_NARROW__ISO_
 10
179.6352690313279936
 20
164.3155818498202052
 30
0.0
 70
    32
  0
VERTEX
  5
808
  8
VISIBLE_NARROW__ISO_
 10
179.624922574635093
 20
164.3127865742297047
 30
0.0
 70
    32
  0
VERTEX
  5
809
  8
VISIBLE_NARROW__ISO_
 10
179.6146154880208883
 20
164.3098731884028894
 30
0.0
 70
    32
  0
VERTEX
  5
80A
  8
VISIBLE_NARROW__ISO_
 10
179.6043438344775893
 20
164.3068023222610918
 30
0.0
 70
    32
  0
VERTEX
  5
80B
  8
VISIBLE_NARROW__ISO_
 10
179.5941076140051962
 20
164.3036527159619027
 30
0.0
 70
    32
  0
VERTEX
  5
80C
  8
VISIBLE_NARROW__ISO_
 10
179.5839147006194025
 20
164.3003456293477882
 30
0.0
 70
    32
  0
VERTEX
  5
80D
  8
VISIBLE_NARROW__ISO_
 10
179.5737650943200947
 20
164.2969204324973873
 30
0.0
 70
    32
  0
VERTEX
  5
80E
  8
VISIBLE_NARROW__ISO_
 10
179.5636548580995964
 20
164.2933771254108137
 30
0.0
 70
    32
  0
VERTEX
  5
80F
  8
VISIBLE_NARROW__ISO_
 10
179.5535879289658112
 20
164.2897157080878969
 30
0.0
 70
    32
  0
VERTEX
  5
810
  8
VISIBLE_NARROW__ISO_
 10
179.5435721809342908
 20
164.2859361805288927
 30
0.0
 70
    32
  0
VERTEX
  5
811
  8
VISIBLE_NARROW__ISO_
 10
179.5335997399893984
 20
164.2819991726549063
 30
0.0
 70
    32
  0
VERTEX
  5
812
  8
VISIBLE_NARROW__ISO_
 10
179.5236784801469128
 20
164.2779834246233861
 30
0.0
 70
    32
  0
VERTEX
  5
813
  8
VISIBLE_NARROW__ISO_
 10
179.5138044643987882
 20
164.2738101962769122
 30
0.0
 70
    32
  0
VERTEX
  5
814
  8
VISIBLE_NARROW__ISO_
 10
179.503985566761088
 20
164.2695582277729898
 30
0.0
 70
    32
  0
VERTEX
  5
815
  8
VISIBLE_NARROW__ISO_
 10
179.4942178502257093
 20
164.2651487789541136
 30
0.0
 70
    32
  0
VERTEX
  5
816
  8
VISIBLE_NARROW__ISO_
 10
179.4845091888084028
 20
164.2606212198988942
 30
0.0
 70
    32
  0
VERTEX
  5
817
  8
VISIBLE_NARROW__ISO_
 10
179.4748517084933042
 20
164.2559755506075874
 30
0.0
 70
    32
  0
VERTEX
  5
818
  8
VISIBLE_NARROW__ISO_
 10
179.4652572203042951
 20
164.2512511411588036
 30
0.0
 70
    32
  0
VERTEX
  5
819
  8
VISIBLE_NARROW__ISO_
 10
179.4557178502257102
 20
164.2463692513950093
 30
0.0
 70
    32
  0
VERTEX
  5
81A
  8
VISIBLE_NARROW__ISO_
 10
179.4462414722729022
 20
164.2413692513950139
 30
0.0
 70
    32
  0
VERTEX
  5
81B
  8
VISIBLE_NARROW__ISO_
 10
179.4368280864460985
 20
164.2362905112375984
 30
0.0
 70
    32
  0
VERTEX
  5
81C
  8
VISIBLE_NARROW__ISO_
 10
179.4274737557373953
 20
164.231054290765087
 30
0.0
 70
    32
  0
VERTEX
  5
81D
  8
VISIBLE_NARROW__ISO_
 10
179.4181902911705038
 20
164.2257393301352124
 30
0.0
 70
    32
  0
VERTEX
  5
81E
  8
VISIBLE_NARROW__ISO_
 10
179.408969818729588
 20
164.2202668891902988
 30
0.0
 70
    32
  0
VERTEX
  5
81F
  8
VISIBLE_NARROW__ISO_
 10
179.399816275422495
 20
164.2147157080879083
 30
0.0
 70
    32
  0
VERTEX
  5
820
  8
VISIBLE_NARROW__ISO_
 10
179.3907335982570999
 20
164.2090464167494019
 30
0.0
 70
    32
  0
VERTEX
  5
821
  8
VISIBLE_NARROW__ISO_
 10
179.3817217872334879
 20
164.2032590151746092
 30
0.0
 70
    32
  0
VERTEX
  5
822
  8
VISIBLE_NARROW__ISO_
 10
179.3727808423516024
 20
164.1973535033635017
 30
0.0
 70
    32
  0
VERTEX
  5
823
  8
VISIBLE_NARROW__ISO_
 10
179.3639107636113863
 20
164.1913692513950025
 30
0.0
 70
    32
  0
VERTEX
  5
824
  8
VISIBLE_NARROW__ISO_
 10
179.355119425028704
 20
164.1852668891903022
 30
0.0
 70
    32
  0
VERTEX
  5
825
  8
VISIBLE_NARROW__ISO_
 10
179.3463989525878048
 20
164.1790464167494008
 30
0.0
 70
    32
  0
VERTEX
  5
826
  8
VISIBLE_NARROW__ISO_
 10
179.337761157312201
 20
164.172707834072213
 30
0.0
 70
    32
  0
VERTEX
  5
827
  8
VISIBLE_NARROW__ISO_
 10
179.3291981651863125
 20
164.1662905112374915
 30
0.0
 70
    32
  0
VERTEX
  5
828
  8
VISIBLE_NARROW__ISO_
 10
179.3207178502256909
 20
164.159755078166711
 30
0.0
 70
    32
  0
VERTEX
  5
829
  8
VISIBLE_NARROW__ISO_
 10
179.3123162754224893
 20
164.1531015348595872
 30
0.0
 70
    32
  0
VERTEX
  5
82A
  8
VISIBLE_NARROW__ISO_
 10
179.3039973777846967
 20
164.1463692513949866
 30
0.0
 70
    32
  0
VERTEX
  5
82B
  8
VISIBLE_NARROW__ISO_
 10
179.2957611573123131
 20
164.1395188576942132
 30
0.0
 70
    32
  0
VERTEX
  5
82C
  8
VISIBLE_NARROW__ISO_
 10
179.2876076140051964
 20
164.1325897238359914
 30
0.0
 70
    32
  0
VERTEX
  5
82D
  8
VISIBLE_NARROW__ISO_
 10
179.2795446218790971
 20
164.1255424797415117
 30
0.0
 70
    32
  0
VERTEX
  5
82E
  8
VISIBLE_NARROW__ISO_
 10
179.2715682439265095
 20
164.1184164954894982
 30
0.0
 70
    32
  0
VERTEX
  5
82F
  8
VISIBLE_NARROW__ISO_
 10
179.2636784801468934
 20
164.111172401001312
 30
0.0
 70
    32
  0
VERTEX
  5
830
  8
VISIBLE_NARROW__ISO_
 10
179.2558753305407038
 20
164.1038101962768962
 30
0.0
 70
    32
  0
VERTEX
  5
831
  8
VISIBLE_NARROW__ISO_
 10
179.2481666691232931
 20
164.0964086214738131
 30
0.0
 70
    32
  0
VERTEX
  5
832
  8
VISIBLE_NARROW__ISO_
 10
179.2405485588870988
 20
164.0888889364343868
 30
0.0
 70
    32
  0
VERTEX
  5
833
  8
VISIBLE_NARROW__ISO_
 10
179.2330249368397972
 20
164.0812511411587877
 30
0.0
 70
    32
  0
VERTEX
  5
834
  8
VISIBLE_NARROW__ISO_
 10
179.2255958029815872
 20
164.0735346057257118
 30
0.0
 70
    32
  0
VERTEX
  5
835
  8
VISIBLE_NARROW__ISO_
 10
179.2182611573122983
 20
164.0657393301351874
 30
0.0
 70
    32
  0
VERTEX
  5
836
  8
VISIBLE_NARROW__ISO_
 10
179.2110209998319021
 20
164.0578653143871009
 30
0.0
 70
    32
  0
VERTEX
  5
837
  8
VISIBLE_NARROW__ISO_
 10
179.2038792675485013
 20
164.0498731884028984
 30
0.0
 70
    32
  0
VERTEX
  5
838
  8
VISIBLE_NARROW__ISO_
 10
179.1968398974696868
 20
164.0418023222611907
 30
0.0
 70
    32
  0
VERTEX
  5
839
  8
VISIBLE_NARROW__ISO_
 10
179.1898950155799071
 20
164.0336527159618925
 30
0.0
 70
    32
  0
VERTEX
  5
83A
  8
VISIBLE_NARROW__ISO_
 10
179.1830524958949127
 20
164.0254243695052878
 30
0.0
 70
    32
  0
VERTEX
  5
83B
  8
VISIBLE_NARROW__ISO_
 10
179.1763123384145899
 20
164.0171172828910926
 30
0.0
 70
    32
  0
VERTEX
  5
83C
  8
VISIBLE_NARROW__ISO_
 10
179.1696745431391093
 20
164.0086920860406963
 30
0.0
 70
    32
  0
VERTEX
  5
83D
  8
VISIBLE_NARROW__ISO_
 10
179.1631391100681867
 20
164.0002275191116041
 30
0.0
 70
    32
  0
VERTEX
  5
83E
  8
VISIBLE_NARROW__ISO_
 10
179.156709976209811
 20
163.9916448419461972
 30
0.0
 70
    32
  0
VERTEX
  5
83F
  8
VISIBLE_NARROW__ISO_
 10
179.1503832045563911
 20
163.9830227947020944
 30
0.0
 70
    32
  0
VERTEX
  5
840
  8
VISIBLE_NARROW__ISO_
 10
179.1441666691231944
 20
163.9743220073004863
 30
0.0
 70
    32
  0
VERTEX
  5
841
  8
VISIBLE_NARROW__ISO_
 10
179.1380564329029141
 20
163.9655031096627056
 30
0.0
 70
    32
  0
VERTEX
  5
842
  8
VISIBLE_NARROW__ISO_
 10
179.1320524958950102
 20
163.9566448419462006
 30
0.0
 70
    32
  0
VERTEX
  5
843
  8
VISIBLE_NARROW__ISO_
 10
179.1261627321154037
 20
163.9477078340721903
 30
0.0
 70
    32
  0
VERTEX
  5
844
  8
VISIBLE_NARROW__ISO_
 10
179.1203792675484863
 20
163.9386920860407031
 30
0.0
 70
    32
  0
VERTEX
  5
845
  8
VISIBLE_NARROW__ISO_
 10
179.114706039201991
 20
163.9295975978517106
 30
0.0
 70
    32
  0
VERTEX
  5
846
  8
VISIBLE_NARROW__ISO_
 10
179.1091469840839068
 20
163.9204637395839939
 30
0.0
 70
    32
  0
VERTEX
  5
847
  8
VISIBLE_NARROW__ISO_
 10
179.1037021021940916
 20
163.9112511411588002
 30
0.0
 70
    32
  0
VERTEX
  5
848
  8
VISIBLE_NARROW__ISO_
 10
179.0983674565248975
 20
163.9019598025761013
 30
0.0
 70
    32
  0
VERTEX
  5
849
  8
VISIBLE_NARROW__ISO_
 10
179.0931469840838872
 20
163.8925897238360108
 30
0.0
 70
    32
  0
VERTEX
  5
84A
  8
VISIBLE_NARROW__ISO_
 10
179.0880446218791917
 20
163.8831802750171107
 30
0.0
 70
    32
  0
VERTEX
  5
84B
  8
VISIBLE_NARROW__ISO_
 10
179.0830564329027936
 20
163.8736920860407054
 30
0.0
 70
    32
  0
VERTEX
  5
84C
  8
VISIBLE_NARROW__ISO_
 10
179.0781863541625967
 20
163.8641645269856042
 30
0.0
 70
    32
  0
VERTEX
  5
84D
  8
VISIBLE_NARROW__ISO_
 10
179.0734304486508108
 20
163.8545582277729977
 30
0.0
 70
    32
  0
VERTEX
  5
84E
  8
VISIBLE_NARROW__ISO_
 10
179.0687965903831014
 20
163.8449125584816102
 30
0.0
 70
    32
  0
VERTEX
  5
84F
  8
VISIBLE_NARROW__ISO_
 10
179.064276905343803
 20
163.8351881490328026
 30
0.0
 70
    32
  0
VERTEX
  5
850
  8
VISIBLE_NARROW__ISO_
 10
179.0598792675484106
 20
163.8254243695052139
 30
0.0
 70
    32
  0
VERTEX
  5
851
  8
VISIBLE_NARROW__ISO_
 10
179.0556036769972934
 20
163.8156212198989863
 30
0.0
 70
    32
  0
VERTEX
  5
852
  8
VISIBLE_NARROW__ISO_
 10
179.0514461966824058
 20
163.8057393301351965
 30
0.0
 70
    32
  0
VERTEX
  5
853
  8
VISIBLE_NARROW__ISO_
 10
179.0474107636115093
 20
163.7958180702927109
 30
0.0
 70
    32
  0
VERTEX
  5
854
  8
VISIBLE_NARROW__ISO_
 10
179.0434973777846892
 20
163.7858574403713874
 30
0.0
 70
    32
  0
VERTEX
  5
855
  8
VISIBLE_NARROW__ISO_
 10
179.0397060392020876
 20
163.775818070292587
 30
0.0
 70
    32
  0
VERTEX
  5
856
  8
VISIBLE_NARROW__ISO_
 10
179.0360367478633918
 20
163.7657787002139003
 30
0.0
 70
    32
  0
VERTEX
  5
857
  8
VISIBLE_NARROW__ISO_
 10
179.0324934407767898
 20
163.7556605899777082
 30
0.0
 70
    32
  0
VERTEX
  5
858
  8
VISIBLE_NARROW__ISO_
 10
179.0290721809342926
 20
163.7455031096627067
 30
0.0
 70
    32
  0
VERTEX
  5
859
  8
VISIBLE_NARROW__ISO_
 10
179.0257769053436903
 20
163.7353062592690094
 30
0.0
 70
    32
  0
VERTEX
  5
85A
  8
VISIBLE_NARROW__ISO_
 10
179.0226076140052101
 20
163.7250700387965878
 30
0.0
 70
    32
  0
VERTEX
  5
85B
  8
VISIBLE_NARROW__ISO_
 10
179.0195643069185962
 20
163.7147944482454136
 30
0.0
 70
    32
  0
VERTEX
  5
85C
  8
VISIBLE_NARROW__ISO_
 10
179.0166469840839056
 20
163.7045188576942962
 30
0.0
 70
    32
  0
VERTEX
  5
85D
  8
VISIBLE_NARROW__ISO_
 10
179.0138556455011951
 20
163.6941645269855883
 30
0.0
 70
    32
  0
VERTEX
  5
85E
  8
VISIBLE_NARROW__ISO_
 10
179.0111902911706068
 20
163.6837708261982129
 30
0.0
 70
    32
  0
VERTEX
  5
85F
  8
VISIBLE_NARROW__ISO_
 10
179.0086548580997032
 20
163.6733771254108092
 30
0.0
 70
    32
  0
VERTEX
  5
860
  8
VISIBLE_NARROW__ISO_
 10
179.0062454092808082
 20
163.6629440545445959
 30
0.0
 70
    32
  0
VERTEX
  5
861
  8
VISIBLE_NARROW__ISO_
 10
179.003961944713808
 20
163.6524716135996869
 30
0.0
 70
    32
  0
VERTEX
  5
862
  8
VISIBLE_NARROW__ISO_
 10
179.0018123384145952
 20
163.6419598025761104
 30
0.0
 70
    32
  0
VERTEX
  5
863
  8
VISIBLE_NARROW__ISO_
 10
178.9997887163673909
 20
163.6314479915525055
 30
0.0
 70
    32
  0
VERTEX
  5
864
  8
VISIBLE_NARROW__ISO_
 10
178.9978950155798998
 20
163.6208968104500912
 30
0.0
 70
    32
  0
VERTEX
  5
865
  8
VISIBLE_NARROW__ISO_
 10
178.9961272990445877
 20
163.6103062592690094
 30
0.0
 70
    32
  0
VERTEX
  5
866
  8
VISIBLE_NARROW__ISO_
 10
178.9944934407768073
 20
163.5997157080878992
 30
0.0
 70
    32
  0
VERTEX
  5
867
  8
VISIBLE_NARROW__ISO_
 10
178.9929855667610923
 20
163.589125156906789
 30
0.0
 70
    32
  0
VERTEX
  5
868
  8
VISIBLE_NARROW__ISO_
 10
178.9916115510131078
 20
163.5784952356470114
 30
0.0
 70
    32
  0
VERTEX
  5
869
  8
VISIBLE_NARROW__ISO_
 10
178.9903674565248082
 20
163.5678259443083959
 30
0.0
 70
    32
  0
VERTEX
  5
86A
  8
VISIBLE_NARROW__ISO_
 10
178.989253283296506
 20
163.55719602304859
 30
0.0
 70
    32
  0
VERTEX
  5
86B
  8
VISIBLE_NARROW__ISO_
 10
178.9882690313280023
 20
163.5464873616311934
 30
0.0
 70
    32
  0
VERTEX
  5
86C
  8
VISIBLE_NARROW__ISO_
 10
178.9874147006194107
 20
163.5358180702926916
 30
0.0
 70
    32
  0
VERTEX
  5
86D
  8
VISIBLE_NARROW__ISO_
 10
178.9866942281784077
 20
163.525109408875295
 30
0.0
 70
    32
  0
VERTEX
  5
86E
  8
VISIBLE_NARROW__ISO_
 10
178.9861036769972884
 20
163.5144401175367079
 30
0.0
 70
    32
  0
VERTEX
  5
86F
  8
VISIBLE_NARROW__ISO_
 10
178.9856430470761097
 20
163.5036920860407008
 30
0.0
 70
    32
  0
VERTEX
  5
870
  8
VISIBLE_NARROW__ISO_
 10
178.9853162754224911
 20
163.4929834246233895
 30
0.0
 70
    32
  0
VERTEX
  5
871
  8
VISIBLE_NARROW__ISO_
 10
178.9851194250288984
 20
163.4822747632059929
 30
0.0
 70
    32
  0
VERTEX
  5
872
  8
VISIBLE_NARROW__ISO_
 10
178.9850524958949052
 20
163.4715661017887101
 30
0.0
 70
    32
  0
SEQEND
  5
873
  8
VISIBLE_NARROW__ISO_
  0
LINE
  5
874
  8
VISIBLE_NARROW__ISO_
 10
178.985052817254001
 20
163.4715540485890131
 30
0.0
 11
178.985052817254001
 21
148.5173692946345909
 31
0.0
  0
POLYLINE
  5
875
  8
VISIBLE_NARROW__ISO_
 66
     1
 10
0.0
 20
0.0
 30
0.0
 70
     8
  0
VERTEX
  5
876
  8
VISIBLE_NARROW__ISO_
 10
178.9850524958949052
 20
148.5173692513949959
 30
0.0
 70
    32
  0
VERTEX
  5
877
  8
VISIBLE_NARROW__ISO_
 10
178.9851194250288984
 20
148.5066487789540872
 30
0.0
 70
    32
  0
VERTEX
  5
878
  8
VISIBLE_NARROW__ISO_
 10
178.9853162754224911
 20
148.4959283065130933
 30
0.0
 70
    32
  0
VERTEX
  5
879
  8
VISIBLE_NARROW__ISO_
 10
178.9856430470761097
 20
148.485211771080003
 30
0.0
 70
    32
  0
VERTEX
  5
87A
  8
VISIBLE_NARROW__ISO_
 10
178.9861036769972884
 20
148.4745031096626917
 30
0.0
 70
    32
  0
VERTEX
  5
87B
  8
VISIBLE_NARROW__ISO_
 10
178.9866942281784077
 20
148.4637983852533125
 30
0.0
 70
    32
  0
VERTEX
  5
87C
  8
VISIBLE_NARROW__ISO_
 10
178.9874147006194107
 20
148.4531015348595986
 30
0.0
 70
    32
  0
VERTEX
  5
87D
  8
VISIBLE_NARROW__ISO_
 10
178.9882690313280023
 20
148.4424164954895105
 30
0.0
 70
    32
  0
VERTEX
  5
87E
  8
VISIBLE_NARROW__ISO_
 10
178.989253283296506
 20
148.431743267143105
 30
0.0
 70
    32
  0
VERTEX
  5
87F
  8
VISIBLE_NARROW__ISO_
 10
178.9903674565248082
 20
148.4210818498202116
 30
0.0
 70
    32
  0
VERTEX
  5
880
  8
VISIBLE_NARROW__ISO_
 10
178.9916115510131078
 20
148.4104361805289045
 30
0.0
 70
    32
  0
VERTEX
  5
881
  8
VISIBLE_NARROW__ISO_
 10
178.9929855667610923
 20
148.3998101962768885
 30
0.0
 70
    32
  0
VERTEX
  5
882
  8
VISIBLE_NARROW__ISO_
 10
178.9944934407768073
 20
148.3891960230484983
 30
0.0
 70
    32
  0
VERTEX
  5
883
  8
VISIBLE_NARROW__ISO_
 10
178.9961272990445877
 20
148.3786054718675018
 30
0.0
 70
    32
  0
VERTEX
  5
884
  8
VISIBLE_NARROW__ISO_
 10
178.9978950155798998
 20
148.3680346057257111
 30
0.0
 70
    32
  0
VERTEX
  5
885
  8
VISIBLE_NARROW__ISO_
 10
178.9997887163673909
 20
148.3574873616312004
 30
0.0
 70
    32
  0
VERTEX
  5
886
  8
VISIBLE_NARROW__ISO_
 10
179.0018123384145952
 20
148.3469637395839982
 30
0.0
 70
    32
  0
VERTEX
  5
887
  8
VISIBLE_NARROW__ISO_
 10
179.003961944713808
 20
148.3364676765918944
 30
0.0
 70
    32
  0
VERTEX
  5
888
  8
VISIBLE_NARROW__ISO_
 10
179.0062454092808082
 20
148.3259952356470137
 30
0.0
 70
    32
  0
VERTEX
  5
889
  8
VISIBLE_NARROW__ISO_
 10
179.0086548580997032
 20
148.3155542907651068
 30
0.0
 70
    32
  0
VERTEX
  5
88A
  8
VISIBLE_NARROW__ISO_
 10
179.0111902911706068
 20
148.305144841946202
 30
0.0
 70
    32
  0
VERTEX
  5
88B
  8
VISIBLE_NARROW__ISO_
 10
179.0138556455011951
 20
148.2947668891902993
 30
0.0
 70
    32
  0
VERTEX
  5
88C
  8
VISIBLE_NARROW__ISO_
 10
179.0166469840839056
 20
148.2844243695053024
 30
0.0
 70
    32
  0
VERTEX
  5
88D
  8
VISIBLE_NARROW__ISO_
 10
179.0195643069185962
 20
148.2741133458831939
 30
0.0
 70
    32
  0
VERTEX
  5
88E
  8
VISIBLE_NARROW__ISO_
 10
179.0226076140052101
 20
148.263841692339895
 30
0.0
 70
    32
  0
VERTEX
  5
88F
  8
VISIBLE_NARROW__ISO_
 10
179.0257769053436903
 20
148.2536094088752918
 30
0.0
 70
    32
  0
VERTEX
  5
890
  8
VISIBLE_NARROW__ISO_
 10
179.0290721809342926
 20
148.2434125584815945
 30
0.0
 70
    32
  0
VERTEX
  5
891
  8
VISIBLE_NARROW__ISO_
 10
179.0324934407767898
 20
148.2332629521824003
 30
0.0
 70
    32
  0
VERTEX
  5
892
  8
VISIBLE_NARROW__ISO_
 10
179.0360367478633918
 20
148.223152715961902
 30
0.0
 70
    32
  0
VERTEX
  5
893
  8
VISIBLE_NARROW__ISO_
 10
179.0397060392020876
 20
148.2130897238359921
 30
0.0
 70
    32
  0
VERTEX
  5
894
  8
VISIBLE_NARROW__ISO_
 10
179.0434973777846892
 20
148.2030700387965965
 30
0.0
 70
    32
  0
VERTEX
  5
895
  8
VISIBLE_NARROW__ISO_
 10
179.0474107636115093
 20
148.193097597851704
 30
0.0
 70
    32
  0
VERTEX
  5
896
  8
VISIBLE_NARROW__ISO_
 10
179.0514461966824058
 20
148.1831759443084024
 30
0.0
 70
    32
  0
VERTEX
  5
897
  8
VISIBLE_NARROW__ISO_
 10
179.0556036769972934
 20
148.1733042907650884
 30
0.0
 70
    32
  0
VERTEX
  5
898
  8
VISIBLE_NARROW__ISO_
 10
179.0598792675484106
 20
148.1634846057256993
 30
0.0
 70
    32
  0
VERTEX
  5
899
  8
VISIBLE_NARROW__ISO_
 10
179.064276905343803
 20
148.153718070292598
 30
0.0
 70
    32
  0
VERTEX
  5
89A
  8
VISIBLE_NARROW__ISO_
 10
179.0687965903831014
 20
148.1440070466705947
 30
0.0
 70
    32
  0
VERTEX
  5
89B
  8
VISIBLE_NARROW__ISO_
 10
179.0734304486508108
 20
148.1343519285603918
 30
0.0
 70
    32
  0
VERTEX
  5
89C
  8
VISIBLE_NARROW__ISO_
 10
179.0781863541625967
 20
148.124755078166686
 30
0.0
 70
    32
  0
VERTEX
  5
89D
  8
VISIBLE_NARROW__ISO_
 10
179.0830564329027936
 20
148.1152172828909954
 30
0.0
 70
    32
  0
VERTEX
  5
89E
  8
VISIBLE_NARROW__ISO_
 10
179.0880446218791917
 20
148.1057401175366977
 30
0.0
 70
    32
  0
VERTEX
  5
89F
  8
VISIBLE_NARROW__ISO_
 10
179.0931469840838872
 20
148.0963251569068007
 30
0.0
 70
    32
  0
VERTEX
  5
8A0
  8
VISIBLE_NARROW__ISO_
 10
179.0983674565248975
 20
148.0869739758045114
 30
0.0
 70
    32
  0
VERTEX
  5
8A1
  8
VISIBLE_NARROW__ISO_
 10
179.1037021021940916
 20
148.0776873616312059
 30
0.0
 70
    32
  0
VERTEX
  5
8A2
  8
VISIBLE_NARROW__ISO_
 10
179.1091469840839068
 20
148.0684672828911062
 30
0.0
 70
    32
  0
VERTEX
  5
8A3
  8
VISIBLE_NARROW__ISO_
 10
179.114706039201991
 20
148.0593149206864041
 30
0.0
 70
    32
  0
VERTEX
  5
8A4
  8
VISIBLE_NARROW__ISO_
 10
179.1203792675484863
 20
148.050231849820193
 30
0.0
 70
    32
  0
VERTEX
  5
8A5
  8
VISIBLE_NARROW__ISO_
 10
179.1261627321154037
 20
148.0412188576941901
 30
0.0
 70
    32
  0
VERTEX
  5
8A6
  8
VISIBLE_NARROW__ISO_
 10
179.1320524958950102
 20
148.0322779128123045
 30
0.0
 70
    32
  0
VERTEX
  5
8A7
  8
VISIBLE_NARROW__ISO_
 10
179.1380564329029141
 20
148.0234101962768989
 30
0.0
 70
    32
  0
VERTEX
  5
8A8
  8
VISIBLE_NARROW__ISO_
 10
179.1441666691231944
 20
148.0146168891903073
 30
0.0
 70
    32
  0
VERTEX
  5
8A9
  8
VISIBLE_NARROW__ISO_
 10
179.1503832045563911
 20
148.0058991726548925
 30
0.0
 70
    32
  0
VERTEX
  5
8AA
  8
VISIBLE_NARROW__ISO_
 10
179.156709976209811
 20
147.9972590151745919
 30
0.0
 70
    32
  0
VERTEX
  5
8AB
  8
VISIBLE_NARROW__ISO_
 10
179.1631391100681867
 20
147.9886968104501079
 30
0.0
 70
    32
  0
VERTEX
  5
8AC
  8
VISIBLE_NARROW__ISO_
 10
179.1696745431391093
 20
147.9802145269854918
 30
0.0
 70
    32
  0
VERTEX
  5
8AD
  8
VISIBLE_NARROW__ISO_
 10
179.1763123384145899
 20
147.9718133458831915
 30
0.0
 70
    32
  0
VERTEX
  5
8AE
  8
VISIBLE_NARROW__ISO_
 10
179.1830524958949127
 20
147.9634940545446113
 30
0.0
 70
    32
  0
VERTEX
  5
8AF
  8
VISIBLE_NARROW__ISO_
 10
179.1898950155799071
 20
147.9552586214738028
 30
0.0
 70
    32
  0
VERTEX
  5
8B0
  8
VISIBLE_NARROW__ISO_
 10
179.1968398974696868
 20
147.9471078340721988
 30
0.0
 70
    32
  0
VERTEX
  5
8B1
  8
VISIBLE_NARROW__ISO_
 10
179.2038792675485013
 20
147.939042873442304
 30
0.0
 70
    32
  0
VERTEX
  5
8B2
  8
VISIBLE_NARROW__ISO_
 10
179.2110209998319021
 20
147.9310649206863104
 30
0.0
 70
    32
  0
VERTEX
  5
8B3
  8
VISIBLE_NARROW__ISO_
 10
179.2182611573122983
 20
147.9231755506075956
 30
0.0
 70
    32
  0
VERTEX
  5
8B4
  8
VISIBLE_NARROW__ISO_
 10
179.2255958029815872
 20
147.9153755506075925
 30
0.0
 70
    32
  0
VERTEX
  5
8B5
  8
VISIBLE_NARROW__ISO_
 10
179.2330249368397972
 20
147.907666495489508
 30
0.0
 70
    32
  0
VERTEX
  5
8B6
  8
VISIBLE_NARROW__ISO_
 10
179.2405485588870988
 20
147.9000487789541012
 30
0.0
 70
    32
  0
VERTEX
  5
8B7
  8
VISIBLE_NARROW__ISO_
 10
179.2481666691232931
 20
147.892524763206012
 30
0.0
 70
    32
  0
VERTEX
  5
8B8
  8
VISIBLE_NARROW__ISO_
 10
179.2558753305407038
 20
147.8850944482454111
 30
0.0
 70
    32
  0
VERTEX
  5
8B9
  8
VISIBLE_NARROW__ISO_
 10
179.2636784801468934
 20
147.8777594088753915
 30
0.0
 70
    32
  0
VERTEX
  5
8BA
  8
VISIBLE_NARROW__ISO_
 10
179.2715682439265095
 20
147.8705208261982023
 30
0.0
 70
    32
  0
VERTEX
  5
8BB
  8
VISIBLE_NARROW__ISO_
 10
179.2795446218790971
 20
147.8633794876155036
 30
0.0
 70
    32
  0
VERTEX
  5
8BC
  8
VISIBLE_NARROW__ISO_
 10
179.2876076140051964
 20
147.8563369679305026
 30
0.0
 70
    32
  0
VERTEX
  5
8BD
  8
VISIBLE_NARROW__ISO_
 10
179.2957611573123131
 20
147.8493936608437878
 30
0.0
 70
    32
  0
VERTEX
  5
8BE
  8
VISIBLE_NARROW__ISO_
 10
179.3039973777846967
 20
147.8425511411587934
 30
0.0
 70
    32
  0
VERTEX
  5
8BF
  8
VISIBLE_NARROW__ISO_
 10
179.3123162754224893
 20
147.8358101962768956
 30
0.0
 70
    32
  0
VERTEX
  5
8C0
  8
VISIBLE_NARROW__ISO_
 10
179.3207178502256909
 20
147.8291720466706067
 30
0.0
 70
    32
  0
VERTEX
  5
8C1
  8
VISIBLE_NARROW__ISO_
 10
179.3291981651863125
 20
147.8226374010012876
 30
0.0
 70
    32
  0
VERTEX
  5
8C2
  8
VISIBLE_NARROW__ISO_
 10
179.337761157312201
 20
147.816207401001293
 30
0.0
 70
    32
  0
VERTEX
  5
8C3
  8
VISIBLE_NARROW__ISO_
 10
179.3463989525878048
 20
147.809882991552513
 30
0.0
 70
    32
  0
VERTEX
  5
8C4
  8
VISIBLE_NARROW__ISO_
 10
179.355119425028704
 20
147.8036651175366956
 30
0.0
 70
    32
  0
VERTEX
  5
8C5
  8
VISIBLE_NARROW__ISO_
 10
179.3639107636113863
 20
147.7975546884028972
 30
0.0
 70
    32
  0
VERTEX
  5
8C6
  8
VISIBLE_NARROW__ISO_
 10
179.3727808423516024
 20
147.7915526372217982
 30
0.0
 70
    32
  0
VERTEX
  5
8C7
  8
VISIBLE_NARROW__ISO_
 10
179.3817217872334879
 20
147.7856599206864132
 30
0.0
 70
    32
  0
VERTEX
  5
8C8
  8
VISIBLE_NARROW__ISO_
 10
179.3907335982570999
 20
147.7798773222610862
 30
0.0
 70
    32
  0
VERTEX
  5
8C9
  8
VISIBLE_NARROW__ISO_
 10
179.399816275422495
 20
147.7742057868281051
 30
0.0
 70
    32
  0
VERTEX
  5
8CA
  8
VISIBLE_NARROW__ISO_
 10
179.408969818729588
 20
147.7686461017887041
 30
0.0
 70
    32
  0
VERTEX
  5
8CB
  8
VISIBLE_NARROW__ISO_
 10
179.4181902911705038
 20
147.7631991726549074
 30
0.0
 70
    32
  0
VERTEX
  5
8CC
  8
VISIBLE_NARROW__ISO_
 10
179.4274737557373953
 20
147.7578657868280914
 30
0.0
 70
    32
  0
VERTEX
  5
8CD
  8
VISIBLE_NARROW__ISO_
 10
179.4368280864460985
 20
147.7526468104501021
 30
0.0
 70
    32
  0
VERTEX
  5
8CE
  8
VISIBLE_NARROW__ISO_
 10
179.4462414722729022
 20
147.7475428734423133
 30
0.0
 70
    32
  0
VERTEX
  5
8CF
  8
VISIBLE_NARROW__ISO_
 10
179.4557178502257102
 20
147.7425546844658868
 30
0.0
 70
    32
  0
VERTEX
  5
8D0
  8
VISIBLE_NARROW__ISO_
 10
179.4652572203042951
 20
147.7376834246234125
 30
0.0
 70
    32
  0
VERTEX
  5
8D1
  8
VISIBLE_NARROW__ISO_
 10
179.4748517084933042
 20
147.7329294876155075
 30
0.0
 70
    32
  0
VERTEX
  5
8D2
  8
VISIBLE_NARROW__ISO_
 10
179.4845091888084028
 20
147.7282932671429876
 30
0.0
 70
    32
  0
VERTEX
  5
8D3
  8
VISIBLE_NARROW__ISO_
 10
179.4942178502257093
 20
147.7237763380092019
 30
0.0
 70
    32
  0
VERTEX
  5
8D4
  8
VISIBLE_NARROW__ISO_
 10
179.503985566761088
 20
147.7193783065131072
 30
0.0
 70
    32
  0
VERTEX
  5
8D5
  8
VISIBLE_NARROW__ISO_
 10
179.5138044643987882
 20
147.7151007474579956
 30
0.0
 70
    32
  0
VERTEX
  5
8D6
  8
VISIBLE_NARROW__ISO_
 10
179.5236784801469128
 20
147.7109440545445977
 30
0.0
 70
    32
  0
VERTEX
  5
8D7
  8
VISIBLE_NARROW__ISO_
 10
179.5335997399893984
 20
147.7069086214737013
 30
0.0
 70
    32
  0
VERTEX
  5
8D8
  8
VISIBLE_NARROW__ISO_
 10
179.5435721809342908
 20
147.7029948419462073
 30
0.0
 70
    32
  0
VERTEX
  5
8D9
  8
VISIBLE_NARROW__ISO_
 10
179.5535879289658112
 20
147.6992042907650955
 30
0.0
 70
    32
  0
VERTEX
  5
8DA
  8
VISIBLE_NARROW__ISO_
 10
179.5636548580995964
 20
147.6955361805289044
 30
0.0
 70
    32
  0
VERTEX
  5
8DB
  8
VISIBLE_NARROW__ISO_
 10
179.5737650943200947
 20
147.6919924797414865
 30
0.0
 70
    32
  0
VERTEX
  5
8DC
  8
VISIBLE_NARROW__ISO_
 10
179.5839147006194025
 20
147.688572401001295
 30
0.0
 70
    32
  0
VERTEX
  5
8DD
  8
VISIBLE_NARROW__ISO_
 10
179.5941076140051962
 20
147.6852775191115086
 30
0.0
 70
    32
  0
VERTEX
  5
8DE
  8
VISIBLE_NARROW__ISO_
 10
179.6043438344775893
 20
147.6821074403713965
 30
0.0
 70
    32
  0
VERTEX
  5
8DF
  8
VISIBLE_NARROW__ISO_
 10
179.6146154880208883
 20
147.6790633458832076
 30
0.0
 70
    32
  0
VERTEX
  5
8E0
  8
VISIBLE_NARROW__ISO_
 10
179.624922574635093
 20
147.6761452356469988
 30
0.0
 70
    32
  0
VERTEX
  5
8E1
  8
VISIBLE_NARROW__ISO_
 10
179.6352690313279936
 20
147.6733538970642883
 30
0.0
 70
    32
  0
VERTEX
  5
8E2
  8
VISIBLE_NARROW__ISO_
 10
179.6456469840838963
 20
147.6706893301351897
 30
0.0
 70
    32
  0
VERTEX
  5
8E3
  8
VISIBLE_NARROW__ISO_
 10
179.6560564329028011
 20
147.6681527159620089
 30
0.0
 70
    32
  0
VERTEX
  5
8E4
  8
VISIBLE_NARROW__ISO_
 10
179.6664973777847081
 20
147.6657432671430001
 30
0.0
 70
    32
  0
VERTEX
  5
8E5
  8
VISIBLE_NARROW__ISO_
 10
179.6769658817217135
 20
147.6634625584815979
 30
0.0
 70
    32
  0
VERTEX
  5
8E6
  8
VISIBLE_NARROW__ISO_
 10
179.6874658817216925
 20
147.6613098025761133
 30
0.0
 70
    32
  0
VERTEX
  5
8E7
  8
VISIBLE_NARROW__ISO_
 10
179.6979895037690085
 20
147.659286180528909
 30
0.0
 70
    32
  0
VERTEX
  5
8E8
  8
VISIBLE_NARROW__ISO_
 10
179.7085367478634907
 20
147.6573916923398997
 30
0.0
 70
    32
  0
VERTEX
  5
8E9
  8
VISIBLE_NARROW__ISO_
 10
179.7191076140051962
 20
147.6556267317099866
 30
0.0
 70
    32
  0
VERTEX
  5
8EA
  8
VISIBLE_NARROW__ISO_
 10
179.7296981651863064
 20
147.653991298639113
 30
0.0
 70
    32
  0
VERTEX
  5
8EB
  8
VISIBLE_NARROW__ISO_
 10
179.7403084014067076
 20
147.6524857868280947
 30
0.0
 70
    32
  0
VERTEX
  5
8EC
  8
VISIBLE_NARROW__ISO_
 10
179.7509383226665989
 20
147.6511105899776908
 30
0.0
 70
    32
  0
VERTEX
  5
8ED
  8
VISIBLE_NARROW__ISO_
 10
179.7615839919579912
 20
147.6498653143871138
 30
0.0
 70
    32
  0
VERTEX
  5
8EE
  8
VISIBLE_NARROW__ISO_
 10
179.7722454092807993
 20
147.6487511411588116
 30
0.0
 70
    32
  0
VERTEX
  5
8EF
  8
VISIBLE_NARROW__ISO_
 10
179.7829186376272901
 20
147.6477672828910954
 30
0.0
 70
    32
  0
VERTEX
  5
8F0
  8
VISIBLE_NARROW__ISO_
 10
179.793603676997293
 20
147.6469145269855971
 30
0.0
 70
    32
  0
VERTEX
  5
8F1
  8
VISIBLE_NARROW__ISO_
 10
179.8043005273910069
 20
147.6461924797415008
 30
0.0
 70
    32
  0
VERTEX
  5
8F2
  8
VISIBLE_NARROW__ISO_
 10
179.8150052518003861
 20
147.6456019285602963
 30
0.0
 70
    32
  0
VERTEX
  5
8F3
  8
VISIBLE_NARROW__ISO_
 10
179.8257139132178111
 20
147.6451424797413949
 30
0.0
 70
    32
  0
VERTEX
  5
8F4
  8
VISIBLE_NARROW__ISO_
 10
179.8364304486507876
 20
147.6448141332847968
 30
0.0
 70
    32
  0
VERTEX
  5
8F5
  8
VISIBLE_NARROW__ISO_
 10
179.84715092109181
 20
147.6446168891903028
 30
0.0
 70
    32
  0
VERTEX
  5
8F6
  8
VISIBLE_NARROW__ISO_
 10
179.8578713935326903
 20
147.6445515348596018
 30
0.0
 70
    32
  0
SEQEND
  5
8F7
  8
VISIBLE_NARROW__ISO_
  0
LINE
  5
8F8
  8
VISIBLE_NARROW__ISO_
 10
179.8578707570788993
 20
147.6445513548096926
 30
0.0
 11
203.2365229968847018
 21
147.6445513548096926
 31
0.0
  0
POLYLINE
  5
8F9
  8
VISIBLE_NARROW__ISO_
 66
     1
 10
0.0
 20
0.0
 30
0.0
 70
     8
  0
VERTEX
  5
8FA
  8
VISIBLE_NARROW__ISO_
 10
204.1093398974697948
 20
163.4715661017887101
 30
0.0
 70
    32
  0
VERTEX
  5
8FB
  8
VISIBLE_NARROW__ISO_
 10
204.1092611573122895
 20
163.4822747632059929
 30
0.0
 70
    32
  0
VERTEX
  5
8FC
  8
VISIBLE_NARROW__ISO_
 10
204.1090643069186115
 20
163.4929834246233895
 30
0.0
 70
    32
  0
VERTEX
  5
8FD
  8
VISIBLE_NARROW__ISO_
 10
204.1087493462885902
 20
163.5036920860407008
 30
0.0
 70
    32
  0
VERTEX
  5
8FE
  8
VISIBLE_NARROW__ISO_
 10
204.1082769053438142
 20
163.5144401175367079
 30
0.0
 70
    32
  0
VERTEX
  5
8FF
  8
VISIBLE_NARROW__ISO_
 10
204.1076863541626096
 20
163.525109408875295
 30
0.0
 70
    32
  0
VERTEX
  5
900
  8
VISIBLE_NARROW__ISO_
 10
204.1069776927452892
 20
163.5358180702926916
 30
0.0
 70
    32
  0
VERTEX
  5
901
  8
VISIBLE_NARROW__ISO_
 10
204.1061115510131003
 20
163.5464873616311934
 30
0.0
 70
    32
  0
VERTEX
  5
902
  8
VISIBLE_NARROW__ISO_
 10
204.1051272990445966
 20
163.55719602304859
 30
0.0
 70
    32
  0
VERTEX
  5
903
  8
VISIBLE_NARROW__ISO_
 10
204.1040249368398918
 20
163.5678259443083959
 30
0.0
 70
    32
  0
VERTEX
  5
904
  8
VISIBLE_NARROW__ISO_
 10
204.1027650943202048
 20
163.5784952356470114
 30
0.0
 70
    32
  0
VERTEX
  5
905
  8
VISIBLE_NARROW__ISO_
 10
204.1013871415642882
 20
163.589125156906789
 30
0.0
 70
    32
  0
VERTEX
  5
906
  8
VISIBLE_NARROW__ISO_
 10
204.0998910785721137
 20
163.5997157080878992
 30
0.0
 70
    32
  0
VERTEX
  5
907
  8
VISIBLE_NARROW__ISO_
 10
204.0982769053437949
 20
163.6103062592690094
 30
0.0
 70
    32
  0
VERTEX
  5
908
  8
VISIBLE_NARROW__ISO_
 10
204.0965052518004939
 20
163.6208968104500912
 30
0.0
 70
    32
  0
VERTEX
  5
909
  8
VISIBLE_NARROW__ISO_
 10
204.0946154880209065
 20
163.6314479915525055
 30
0.0
 70
    32
  0
VERTEX
  5
90A
  8
VISIBLE_NARROW__ISO_
 10
204.0925682439265074
 20
163.6419598025761104
 30
0.0
 70
    32
  0
VERTEX
  5
90B
  8
VISIBLE_NARROW__ISO_
 10
204.0904422596744894
 20
163.6524716135996869
 30
0.0
 70
    32
  0
VERTEX
  5
90C
  8
VISIBLE_NARROW__ISO_
 10
204.0881587951076028
 20
163.6629440545445959
 30
0.0
 70
    32
  0
VERTEX
  5
90D
  8
VISIBLE_NARROW__ISO_
 10
204.0857572203044015
 20
163.6733771254108092
 30
0.0
 70
    32
  0
VERTEX
  5
90E
  8
VISIBLE_NARROW__ISO_
 10
204.0831981651863032
 20
163.6837708261982129
 30
0.0
 70
    32
  0
VERTEX
  5
90F
  8
VISIBLE_NARROW__ISO_
 10
204.0805209998318901
 20
163.6941645269855883
 30
0.0
 70
    32
  0
VERTEX
  5
910
  8
VISIBLE_NARROW__ISO_
 10
204.0777650943201991
 20
163.7045188576942962
 30
0.0
 70
    32
  0
VERTEX
  5
911
  8
VISIBLE_NARROW__ISO_
 10
204.0748123384146027
 20
163.7147944482454136
 30
0.0
 70
    32
  0
VERTEX
  5
912
  8
VISIBLE_NARROW__ISO_
 10
204.0717808423516999
 20
163.7250700387965878
 30
0.0
 70
    32
  0
VERTEX
  5
913
  8
VISIBLE_NARROW__ISO_
 10
204.0686312360523971
 20
163.7353062592690094
 30
0.0
 70
    32
  0
VERTEX
  5
914
  8
VISIBLE_NARROW__ISO_
 10
204.065324149438311
 20
163.7455031096627067
 30
0.0
 70
    32
  0
VERTEX
  5
915
  8
VISIBLE_NARROW__ISO_
 10
204.0618989525877964
 20
163.7556605899777082
 30
0.0
 70
    32
  0
VERTEX
  5
916
  8
VISIBLE_NARROW__ISO_
 10
204.0583556455011944
 20
163.7657787002139003
 30
0.0
 70
    32
  0
VERTEX
  5
917
  8
VISIBLE_NARROW__ISO_
 10
204.0546942281783913
 20
163.775818070292587
 30
0.0
 70
    32
  0
VERTEX
  5
918
  8
VISIBLE_NARROW__ISO_
 10
204.0509147006193871
 20
163.7858574403713874
 30
0.0
 70
    32
  0
VERTEX
  5
919
  8
VISIBLE_NARROW__ISO_
 10
204.0469776927454006
 20
163.7958180702927109
 30
0.0
 70
    32
  0
VERTEX
  5
91A
  8
VISIBLE_NARROW__ISO_
 10
204.0429619447137952
 20
163.8057393301351965
 30
0.0
 70
    32
  0
VERTEX
  5
91B
  8
VISIBLE_NARROW__ISO_
 10
204.0387887163674066
 20
163.8156212198989863
 30
0.0
 70
    32
  0
VERTEX
  5
91C
  8
VISIBLE_NARROW__ISO_
 10
204.0344973777847883
 20
163.8254243695052139
 30
0.0
 70
    32
  0
VERTEX
  5
91D
  8
VISIBLE_NARROW__ISO_
 10
204.030127299044608
 20
163.8351881490328026
 30
0.0
 70
    32
  0
VERTEX
  5
91E
  8
VISIBLE_NARROW__ISO_
 10
204.0255997399895023
 20
163.8449125584816102
 30
0.0
 70
    32
  0
VERTEX
  5
91F
  8
VISIBLE_NARROW__ISO_
 10
204.0209540706981954
 20
163.8545582277729977
 30
0.0
 70
    32
  0
VERTEX
  5
920
  8
VISIBLE_NARROW__ISO_
 10
204.0161902911706022
 20
163.8641645269856042
 30
0.0
 70
    32
  0
VERTEX
  5
921
  8
VISIBLE_NARROW__ISO_
 10
204.0113477714855037
 20
163.8736920860407054
 30
0.0
 70
    32
  0
VERTEX
  5
922
  8
VISIBLE_NARROW__ISO_
 10
204.0063477714855082
 20
163.8831802750171107
 30
0.0
 70
    32
  0
VERTEX
  5
923
  8
VISIBLE_NARROW__ISO_
 10
204.0012296612493969
 20
163.8925897238360108
 30
0.0
 70
    32
  0
VERTEX
  5
924
  8
VISIBLE_NARROW__ISO_
 10
203.9960328108556098
 20
163.9019598025761013
 30
0.0
 70
    32
  0
VERTEX
  5
925
  8
VISIBLE_NARROW__ISO_
 10
203.9906784801468973
 20
163.9112511411588002
 30
0.0
 70
    32
  0
VERTEX
  5
926
  8
VISIBLE_NARROW__ISO_
 10
203.9852454092807932
 20
163.9204637395839939
 30
0.0
 70
    32
  0
VERTEX
  5
927
  8
VISIBLE_NARROW__ISO_
 10
203.9796942281784027
 20
163.9295975978517106
 30
0.0
 70
    32
  0
VERTEX
  5
928
  8
VISIBLE_NARROW__ISO_
 10
203.9740249368398963
 20
163.9386920860407031
 30
0.0
 70
    32
  0
VERTEX
  5
929
  8
VISIBLE_NARROW__ISO_
 10
203.9682375352651036
 20
163.9477078340721903
 30
0.0
 70
    32
  0
VERTEX
  5
92A
  8
VISIBLE_NARROW__ISO_
 10
203.962332023453996
 20
163.9566448419462006
 30
0.0
 70
    32
  0
VERTEX
  5
92B
  8
VISIBLE_NARROW__ISO_
 10
203.9563477714854969
 20
163.9655031096627056
 30
0.0
 70
    32
  0
VERTEX
  5
92C
  8
VISIBLE_NARROW__ISO_
 10
203.9502454092807966
 20
163.9743220073004863
 30
0.0
 70
    32
  0
VERTEX
  5
92D
  8
VISIBLE_NARROW__ISO_
 10
203.9440249368398099
 20
163.9830227947020944
 30
0.0
 70
    32
  0
VERTEX
  5
92E
  8
VISIBLE_NARROW__ISO_
 10
203.9376863541627074
 20
163.9916448419461972
 30
0.0
 70
    32
  0
VERTEX
  5
92F
  8
VISIBLE_NARROW__ISO_
 10
203.9312690313279859
 20
164.0002275191116041
 30
0.0
 70
    32
  0
VERTEX
  5
930
  8
VISIBLE_NARROW__ISO_
 10
203.9247335982572054
 20
164.0086920860406963
 30
0.0
 70
    32
  0
VERTEX
  5
931
  8
VISIBLE_NARROW__ISO_
 10
203.91808005495011
 20
164.0171172828910926
 30
0.0
 70
    32
  0
VERTEX
  5
932
  8
VISIBLE_NARROW__ISO_
 10
203.9113477714855946
 20
164.0254243695052878
 30
0.0
 70
    32
  0
VERTEX
  5
933
  8
VISIBLE_NARROW__ISO_
 10
203.9044973777847929
 20
164.0336527159618925
 30
0.0
 70
    32
  0
VERTEX
  5
934
  8
VISIBLE_NARROW__ISO_
 10
203.8975682439264006
 20
164.0418023222611907
 30
0.0
 70
    32
  0
VERTEX
  5
935
  8
VISIBLE_NARROW__ISO_
 10
203.8905209998320061
 20
164.0498731884028984
 30
0.0
 70
    32
  0
VERTEX
  5
936
  8
VISIBLE_NARROW__ISO_
 10
203.8833556455012967
 20
164.0578653143871009
 30
0.0
 70
    32
  0
VERTEX
  5
937
  8
VISIBLE_NARROW__ISO_
 10
203.8761509210918064
 20
164.0657393301351874
 30
0.0
 70
    32
  0
VERTEX
  5
938
  8
VISIBLE_NARROW__ISO_
 10
203.8687887163673054
 20
164.0735346057257118
 30
0.0
 70
    32
  0
VERTEX
  5
939
  8
VISIBLE_NARROW__ISO_
 10
203.8613871415641938
 20
164.0812511411587877
 30
0.0
 70
    32
  0
VERTEX
  5
93A
  8
VISIBLE_NARROW__ISO_
 10
203.8538280864461001
 20
164.0888889364343868
 30
0.0
 70
    32
  0
VERTEX
  5
93B
  8
VISIBLE_NARROW__ISO_
 10
203.8462296612493105
 20
164.0964086214738131
 30
0.0
 70
    32
  0
VERTEX
  5
93C
  8
VISIBLE_NARROW__ISO_
 10
203.8385131258162062
 20
164.1038101962768962
 30
0.0
 70
    32
  0
VERTEX
  5
93D
  8
VISIBLE_NARROW__ISO_
 10
203.8307178502257102
 20
164.111172401001312
 30
0.0
 70
    32
  0
VERTEX
  5
93E
  8
VISIBLE_NARROW__ISO_
 10
203.8228438344777089
 20
164.1184164954894982
 30
0.0
 70
    32
  0
VERTEX
  5
93F
  8
VISIBLE_NARROW__ISO_
 10
203.8148517084933928
 20
164.1255424797415117
 30
0.0
 70
    32
  0
VERTEX
  5
940
  8
VISIBLE_NARROW__ISO_
 10
203.8067808423517135
 20
164.1325897238359914
 30
0.0
 70
    32
  0
VERTEX
  5
941
  8
VISIBLE_NARROW__ISO_
 10
203.7986312360523868
 20
164.1395188576942132
 30
0.0
 70
    32
  0
VERTEX
  5
942
  8
VISIBLE_NARROW__ISO_
 10
203.7904028895956969
 20
164.1463692513949866
 30
0.0
 70
    32
  0
VERTEX
  5
943
  8
VISIBLE_NARROW__ISO_
 10
203.7820958029815017
 20
164.1531015348595872
 30
0.0
 70
    32
  0
VERTEX
  5
944
  8
VISIBLE_NARROW__ISO_
 10
203.7736706061311907
 20
164.159755078166711
 30
0.0
 70
    32
  0
VERTEX
  5
945
  8
VISIBLE_NARROW__ISO_
 10
203.7652060392020985
 20
164.1662905112374915
 30
0.0
 70
    32
  0
VERTEX
  5
946
  8
VISIBLE_NARROW__ISO_
 10
203.7566233620366916
 20
164.172707834072213
 30
0.0
 70
    32
  0
VERTEX
  5
947
  8
VISIBLE_NARROW__ISO_
 10
203.7480013147927025
 20
164.1790464167494008
 30
0.0
 70
    32
  0
VERTEX
  5
948
  8
VISIBLE_NARROW__ISO_
 10
203.7392611573123133
 20
164.1852668891903022
 30
0.0
 70
    32
  0
VERTEX
  5
949
  8
VISIBLE_NARROW__ISO_
 10
203.7304816297533137
 20
164.1913692513950025
 30
0.0
 70
    32
  0
VERTEX
  5
94A
  8
VISIBLE_NARROW__ISO_
 10
203.7216233620366097
 20
164.1973535033635017
 30
0.0
 70
    32
  0
VERTEX
  5
94B
  8
VISIBLE_NARROW__ISO_
 10
203.7126863541625994
 20
164.2032590151746092
 30
0.0
 70
    32
  0
VERTEX
  5
94C
  8
VISIBLE_NARROW__ISO_
 10
203.7036706061311122
 20
164.2090464167494019
 30
0.0
 70
    32
  0
VERTEX
  5
94D
  8
VISIBLE_NARROW__ISO_
 10
203.694576117942205
 20
164.2147157080879083
 30
0.0
 70
    32
  0
VERTEX
  5
94E
  8
VISIBLE_NARROW__ISO_
 10
203.6854422596744882
 20
164.2202668891902988
 30
0.0
 70
    32
  0
VERTEX
  5
94F
  8
VISIBLE_NARROW__ISO_
 10
203.6761902911705988
 20
164.2257393301352124
 30
0.0
 70
    32
  0
VERTEX
  5
950
  8
VISIBLE_NARROW__ISO_
 10
203.6668989525878999
 20
164.231054290765087
 30
0.0
 70
    32
  0
VERTEX
  5
951
  8
VISIBLE_NARROW__ISO_
 10
203.6575682439265051
 20
164.2362905112375984
 30
0.0
 70
    32
  0
VERTEX
  5
952
  8
VISIBLE_NARROW__ISO_
 10
203.6481587951074914
 20
164.2413692513950139
 30
0.0
 70
    32
  0
VERTEX
  5
953
  8
VISIBLE_NARROW__ISO_
 10
203.6386706061311997
 20
164.2463692513950093
 30
0.0
 70
    32
  0
VERTEX
  5
954
  8
VISIBLE_NARROW__ISO_
 10
203.6291430470760986
 20
164.2512511411588036
 30
0.0
 70
    32
  0
VERTEX
  5
955
  8
VISIBLE_NARROW__ISO_
 10
203.6195367478634068
 20
164.2559755506075874
 30
0.0
 70
    32
  0
VERTEX
  5
956
  8
VISIBLE_NARROW__ISO_
 10
203.6098910785721046
 20
164.2606212198988942
 30
0.0
 70
    32
  0
VERTEX
  5
957
  8
VISIBLE_NARROW__ISO_
 10
203.600166669123297
 20
164.2651487789541136
 30
0.0
 70
    32
  0
VERTEX
  5
958
  8
VISIBLE_NARROW__ISO_
 10
203.5904028895957936
 20
164.2695582277729898
 30
0.0
 70
    32
  0
VERTEX
  5
959
  8
VISIBLE_NARROW__ISO_
 10
203.5805997399893954
 20
164.2738101962769122
 30
0.0
 70
    32
  0
VERTEX
  5
95A
  8
VISIBLE_NARROW__ISO_
 10
203.5707178502256909
 20
164.2779834246233861
 30
0.0
 70
    32
  0
VERTEX
  5
95B
  8
VISIBLE_NARROW__ISO_
 10
203.5607965903830916
 20
164.2819991726549063
 30
0.0
 70
    32
  0
VERTEX
  5
95C
  8
VISIBLE_NARROW__ISO_
 10
203.5508359604619102
 20
164.2859361805288927
 30
0.0
 70
    32
  0
VERTEX
  5
95D
  8
VISIBLE_NARROW__ISO_
 10
203.5407965903831098
 20
164.2897157080878969
 30
0.0
 70
    32
  0
VERTEX
  5
95E
  8
VISIBLE_NARROW__ISO_
 10
203.5307572203043947
 20
164.2933771254108137
 30
0.0
 70
    32
  0
VERTEX
  5
95F
  8
VISIBLE_NARROW__ISO_
 10
203.5206391100682026
 20
164.2969204324973873
 30
0.0
 70
    32
  0
VERTEX
  5
960
  8
VISIBLE_NARROW__ISO_
 10
203.5104816297532864
 20
164.3003456293477882
 30
0.0
 70
    32
  0
VERTEX
  5
961
  8
VISIBLE_NARROW__ISO_
 10
203.5002847793595038
 20
164.3036527159619027
 30
0.0
 70
    32
  0
VERTEX
  5
962
  8
VISIBLE_NARROW__ISO_
 10
203.4900485588871106
 20
164.3068023222610918
 30
0.0
 70
    32
  0
VERTEX
  5
963
  8
VISIBLE_NARROW__ISO_
 10
203.4797729683359933
 20
164.3098731884028894
 30
0.0
 70
    32
  0
VERTEX
  5
964
  8
VISIBLE_NARROW__ISO_
 10
203.4694580077060095
 20
164.3127865742297047
 30
0.0
 70
    32
  0
VERTEX
  5
965
  8
VISIBLE_NARROW__ISO_
 10
203.4591430470761111
 20
164.3155818498202052
 30
0.0
 70
    32
  0
VERTEX
  5
966
  8
VISIBLE_NARROW__ISO_
 10
203.4487493462885936
 20
164.3182196450958088
 30
0.0
 70
    32
  0
VERTEX
  5
967
  8
VISIBLE_NARROW__ISO_
 10
203.4383556455011899
 20
164.3207787002139071
 30
0.0
 70
    32
  0
VERTEX
  5
968
  8
VISIBLE_NARROW__ISO_
 10
203.4278832045563945
 20
164.3231802750171084
 30
0.0
 70
    32
  0
VERTEX
  5
969
  8
VISIBLE_NARROW__ISO_
 10
203.4174107636115139
 20
164.325463739583995
 30
0.0
 70
    32
  0
VERTEX
  5
96A
  8
VISIBLE_NARROW__ISO_
 10
203.4069383226666048
 20
164.3276290939147088
 30
0.0
 70
    32
  0
VERTEX
  5
96B
  8
VISIBLE_NARROW__ISO_
 10
203.3963871415641904
 20
164.3296369679304973
 30
0.0
 70
    32
  0
VERTEX
  5
96C
  8
VISIBLE_NARROW__ISO_
 10
203.3858753305406992
 20
164.3315267317099995
 30
0.0
 70
    32
  0
VERTEX
  5
96D
  8
VISIBLE_NARROW__ISO_
 10
203.3752847793595038
 20
164.3332983852533005
 30
0.0
 70
    32
  0
VERTEX
  5
96E
  8
VISIBLE_NARROW__ISO_
 10
203.3646942281785073
 20
164.3349125584815908
 30
0.0
 70
    32
  0
VERTEX
  5
96F
  8
VISIBLE_NARROW__ISO_
 10
203.3540643069187013
 20
164.3364479915524896
 30
0.0
 70
    32
  0
VERTEX
  5
970
  8
VISIBLE_NARROW__ISO_
 10
203.3434737557375058
 20
164.3378259443084062
 30
0.0
 70
    32
  0
VERTEX
  5
971
  8
VISIBLE_NARROW__ISO_
 10
203.3328044643988903
 20
164.3390464167493121
 30
0.0
 70
    32
  0
VERTEX
  5
972
  8
VISIBLE_NARROW__ISO_
 10
203.3221351730603033
 20
164.340188149032798
 30
0.0
 70
    32
  0
VERTEX
  5
973
  8
VISIBLE_NARROW__ISO_
 10
203.3114658817216878
 20
164.3411724010013018
 30
0.0
 70
    32
  0
VERTEX
  5
974
  8
VISIBLE_NARROW__ISO_
 10
203.3007965903831007
 20
164.3419991726549085
 30
0.0
 70
    32
  0
VERTEX
  5
975
  8
VISIBLE_NARROW__ISO_
 10
203.2900879289657894
 20
164.3427472041508963
 30
0.0
 70
    32
  0
VERTEX
  5
976
  8
VISIBLE_NARROW__ISO_
 10
203.2793792675485065
 20
164.3433377553319872
 30
0.0
 70
    32
  0
VERTEX
  5
977
  8
VISIBLE_NARROW__ISO_
 10
203.2686706061311952
 20
164.3437708261980958
 30
0.0
 70
    32
  0
VERTEX
  5
978
  8
VISIBLE_NARROW__ISO_
 10
203.2579619447139123
 20
164.3441251569068129
 30
0.0
 70
    32
  0
VERTEX
  5
979
  8
VISIBLE_NARROW__ISO_
 10
203.247253283296601
 20
164.3443220073004909
 30
0.0
 70
    32
  0
VERTEX
  5
97A
  8
VISIBLE_NARROW__ISO_
 10
203.2365052518005086
 20
164.3443613773793004
 30
0.0
 70
    32
  0
SEQEND
  5
97B
  8
VISIBLE_NARROW__ISO_
  0
POLYLINE
  5
97C
  8
VISIBLE_NARROW__ISO_
 66
     1
 10
0.0
 20
0.0
 30
0.0
 70
     8
  0
VERTEX
  5
97D
  8
VISIBLE_NARROW__ISO_
 10
203.2365052518005086
 20
147.6445515348596018
 30
0.0
 70
    32
  0
VERTEX
  5
97E
  8
VISIBLE_NARROW__ISO_
 10
203.247253283296601
 20
147.6446168891903028
 30
0.0
 70
    32
  0
VERTEX
  5
97F
  8
VISIBLE_NARROW__ISO_
 10
203.2579619447139123
 20
147.6448141332847968
 30
0.0
 70
    32
  0
VERTEX
  5
980
  8
VISIBLE_NARROW__ISO_
 10
203.2686706061311952
 20
147.6451424797413949
 30
0.0
 70
    32
  0
VERTEX
  5
981
  8
VISIBLE_NARROW__ISO_
 10
203.2793792675485065
 20
147.6456019285602963
 30
0.0
 70
    32
  0
VERTEX
  5
982
  8
VISIBLE_NARROW__ISO_
 10
203.2900879289657894
 20
147.6461924797415008
 30
0.0
 70
    32
  0
VERTEX
  5
983
  8
VISIBLE_NARROW__ISO_
 10
203.3007965903831007
 20
147.6469145269855971
 30
0.0
 70
    32
  0
VERTEX
  5
984
  8
VISIBLE_NARROW__ISO_
 10
203.3114658817216878
 20
147.6477672828910954
 30
0.0
 70
    32
  0
VERTEX
  5
985
  8
VISIBLE_NARROW__ISO_
 10
203.3221351730603033
 20
147.6487511411588116
 30
0.0
 70
    32
  0
VERTEX
  5
986
  8
VISIBLE_NARROW__ISO_
 10
203.3328044643988903
 20
147.6498653143871138
 30
0.0
 70
    32
  0
VERTEX
  5
987
  8
VISIBLE_NARROW__ISO_
 10
203.3434737557375058
 20
147.6511105899776908
 30
0.0
 70
    32
  0
VERTEX
  5
988
  8
VISIBLE_NARROW__ISO_
 10
203.3540643069187013
 20
147.6524857868280947
 30
0.0
 70
    32
  0
VERTEX
  5
989
  8
VISIBLE_NARROW__ISO_
 10
203.3646942281785073
 20
147.653991298639113
 30
0.0
 70
    32
  0
VERTEX
  5
98A
  8
VISIBLE_NARROW__ISO_
 10
203.3752847793595038
 20
147.6556267317099866
 30
0.0
 70
    32
  0
VERTEX
  5
98B
  8
VISIBLE_NARROW__ISO_
 10
203.3858753305406992
 20
147.6573916923398997
 30
0.0
 70
    32
  0
VERTEX
  5
98C
  8
VISIBLE_NARROW__ISO_
 10
203.3963871415641904
 20
147.659286180528909
 30
0.0
 70
    32
  0
VERTEX
  5
98D
  8
VISIBLE_NARROW__ISO_
 10
203.4069383226666048
 20
147.6613098025761133
 30
0.0
 70
    32
  0
VERTEX
  5
98E
  8
VISIBLE_NARROW__ISO_
 10
203.4174107636115139
 20
147.6634625584815979
 30
0.0
 70
    32
  0
VERTEX
  5
98F
  8
VISIBLE_NARROW__ISO_
 10
203.4278832045563945
 20
147.6657432671430001
 30
0.0
 70
    32
  0
VERTEX
  5
990
  8
VISIBLE_NARROW__ISO_
 10
203.4383556455011899
 20
147.6681527159620089
 30
0.0
 70
    32
  0
VERTEX
  5
991
  8
VISIBLE_NARROW__ISO_
 10
203.4487493462885936
 20
147.6706893301351897
 30
0.0
 70
    32
  0
VERTEX
  5
992
  8
VISIBLE_NARROW__ISO_
 10
203.4591430470761111
 20
147.6733538970642883
 30
0.0
 70
    32
  0
VERTEX
  5
993
  8
VISIBLE_NARROW__ISO_
 10
203.4694580077060095
 20
147.6761452356469988
 30
0.0
 70
    32
  0
VERTEX
  5
994
  8
VISIBLE_NARROW__ISO_
 10
203.4797729683359933
 20
147.6790633458832076
 30
0.0
 70
    32
  0
VERTEX
  5
995
  8
VISIBLE_NARROW__ISO_
 10
203.4900485588871106
 20
147.6821074403713965
 30
0.0
 70
    32
  0
VERTEX
  5
996
  8
VISIBLE_NARROW__ISO_
 10
203.5002847793595038
 20
147.6852775191115086
 30
0.0
 70
    32
  0
VERTEX
  5
997
  8
VISIBLE_NARROW__ISO_
 10
203.5104816297532864
 20
147.688572401001295
 30
0.0
 70
    32
  0
VERTEX
  5
998
  8
VISIBLE_NARROW__ISO_
 10
203.5206391100682026
 20
147.6919924797414865
 30
0.0
 70
    32
  0
VERTEX
  5
999
  8
VISIBLE_NARROW__ISO_
 10
203.5307572203043947
 20
147.6955361805289044
 30
0.0
 70
    32
  0
VERTEX
  5
99A
  8
VISIBLE_NARROW__ISO_
 10
203.5407965903831098
 20
147.6992042907650955
 30
0.0
 70
    32
  0
VERTEX
  5
99B
  8
VISIBLE_NARROW__ISO_
 10
203.5508359604619102
 20
147.7029948419462073
 30
0.0
 70
    32
  0
VERTEX
  5
99C
  8
VISIBLE_NARROW__ISO_
 10
203.5607965903830916
 20
147.7069086214737013
 30
0.0
 70
    32
  0
VERTEX
  5
99D
  8
VISIBLE_NARROW__ISO_
 10
203.5707178502256909
 20
147.7109440545445977
 30
0.0
 70
    32
  0
VERTEX
  5
99E
  8
VISIBLE_NARROW__ISO_
 10
203.5805997399893954
 20
147.7151007474579956
 30
0.0
 70
    32
  0
VERTEX
  5
99F
  8
VISIBLE_NARROW__ISO_
 10
203.5904028895957936
 20
147.7193783065131072
 30
0.0
 70
    32
  0
VERTEX
  5
9A0
  8
VISIBLE_NARROW__ISO_
 10
203.600166669123297
 20
147.7237763380092019
 30
0.0
 70
    32
  0
VERTEX
  5
9A1
  8
VISIBLE_NARROW__ISO_
 10
203.6098910785721046
 20
147.7282932671429876
 30
0.0
 70
    32
  0
VERTEX
  5
9A2
  8
VISIBLE_NARROW__ISO_
 10
203.6195367478634068
 20
147.7329294876155075
 30
0.0
 70
    32
  0
VERTEX
  5
9A3
  8
VISIBLE_NARROW__ISO_
 10
203.6291430470760986
 20
147.7376834246234125
 30
0.0
 70
    32
  0
VERTEX
  5
9A4
  8
VISIBLE_NARROW__ISO_
 10
203.6386706061311997
 20
147.7425546844658868
 30
0.0
 70
    32
  0
VERTEX
  5
9A5
  8
VISIBLE_NARROW__ISO_
 10
203.6481587951074914
 20
147.7475428734423133
 30
0.0
 70
    32
  0
VERTEX
  5
9A6
  8
VISIBLE_NARROW__ISO_
 10
203.6575682439265051
 20
147.7526468104501021
 30
0.0
 70
    32
  0
VERTEX
  5
9A7
  8
VISIBLE_NARROW__ISO_
 10
203.6668989525878999
 20
147.7578657868280914
 30
0.0
 70
    32
  0
VERTEX
  5
9A8
  8
VISIBLE_NARROW__ISO_
 10
203.6761902911705988
 20
147.7631991726549074
 30
0.0
 70
    32
  0
VERTEX
  5
9A9
  8
VISIBLE_NARROW__ISO_
 10
203.6854422596744882
 20
147.7686461017887041
 30
0.0
 70
    32
  0
VERTEX
  5
9AA
  8
VISIBLE_NARROW__ISO_
 10
203.694576117942205
 20
147.7742057868281051
 30
0.0
 70
    32
  0
VERTEX
  5
9AB
  8
VISIBLE_NARROW__ISO_
 10
203.7036706061311122
 20
147.7798773222610862
 30
0.0
 70
    32
  0
VERTEX
  5
9AC
  8
VISIBLE_NARROW__ISO_
 10
203.7126863541625994
 20
147.7856599206864132
 30
0.0
 70
    32
  0
VERTEX
  5
9AD
  8
VISIBLE_NARROW__ISO_
 10
203.7216233620366097
 20
147.7915526372217982
 30
0.0
 70
    32
  0
VERTEX
  5
9AE
  8
VISIBLE_NARROW__ISO_
 10
203.7304816297533137
 20
147.7975546884028972
 30
0.0
 70
    32
  0
VERTEX
  5
9AF
  8
VISIBLE_NARROW__ISO_
 10
203.7392611573123133
 20
147.8036651175366956
 30
0.0
 70
    32
  0
VERTEX
  5
9B0
  8
VISIBLE_NARROW__ISO_
 10
203.7480013147927025
 20
147.809882991552513
 30
0.0
 70
    32
  0
VERTEX
  5
9B1
  8
VISIBLE_NARROW__ISO_
 10
203.7566233620366916
 20
147.816207401001293
 30
0.0
 70
    32
  0
VERTEX
  5
9B2
  8
VISIBLE_NARROW__ISO_
 10
203.7652060392020985
 20
147.8226374010012876
 30
0.0
 70
    32
  0
VERTEX
  5
9B3
  8
VISIBLE_NARROW__ISO_
 10
203.7736706061311907
 20
147.8291720466706067
 30
0.0
 70
    32
  0
VERTEX
  5
9B4
  8
VISIBLE_NARROW__ISO_
 10
203.7820958029815017
 20
147.8358101962768956
 30
0.0
 70
    32
  0
VERTEX
  5
9B5
  8
VISIBLE_NARROW__ISO_
 10
203.7904028895956969
 20
147.8425511411587934
 30
0.0
 70
    32
  0
VERTEX
  5
9B6
  8
VISIBLE_NARROW__ISO_
 10
203.7986312360523868
 20
147.8493936608437878
 30
0.0
 70
    32
  0
VERTEX
  5
9B7
  8
VISIBLE_NARROW__ISO_
 10
203.8067808423517135
 20
147.8563369679305026
 30
0.0
 70
    32
  0
VERTEX
  5
9B8
  8
VISIBLE_NARROW__ISO_
 10
203.8148517084933928
 20
147.8633794876155036
 30
0.0
 70
    32
  0
VERTEX
  5
9B9
  8
VISIBLE_NARROW__ISO_
 10
203.8228438344777089
 20
147.8705208261982023
 30
0.0
 70
    32
  0
VERTEX
  5
9BA
  8
VISIBLE_NARROW__ISO_
 10
203.8307178502257102
 20
147.8777594088753915
 30
0.0
 70
    32
  0
VERTEX
  5
9BB
  8
VISIBLE_NARROW__ISO_
 10
203.8385131258162062
 20
147.8850944482454111
 30
0.0
 70
    32
  0
VERTEX
  5
9BC
  8
VISIBLE_NARROW__ISO_
 10
203.8462296612493105
 20
147.892524763206012
 30
0.0
 70
    32
  0
VERTEX
  5
9BD
  8
VISIBLE_NARROW__ISO_
 10
203.8538280864461001
 20
147.9000487789541012
 30
0.0
 70
    32
  0
VERTEX
  5
9BE
  8
VISIBLE_NARROW__ISO_
 10
203.8613871415641938
 20
147.907666495489508
 30
0.0
 70
    32
  0
VERTEX
  5
9BF
  8
VISIBLE_NARROW__ISO_
 10
203.8687887163673054
 20
147.9153755506075925
 30
0.0
 70
    32
  0
VERTEX
  5
9C0
  8
VISIBLE_NARROW__ISO_
 10
203.8761509210918064
 20
147.9231755506075956
 30
0.0
 70
    32
  0
VERTEX
  5
9C1
  8
VISIBLE_NARROW__ISO_
 10
203.8833556455012967
 20
147.9310649206863104
 30
0.0
 70
    32
  0
VERTEX
  5
9C2
  8
VISIBLE_NARROW__ISO_
 10
203.8905209998320061
 20
147.939042873442304
 30
0.0
 70
    32
  0
VERTEX
  5
9C3
  8
VISIBLE_NARROW__ISO_
 10
203.8975682439264006
 20
147.9471078340721988
 30
0.0
 70
    32
  0
VERTEX
  5
9C4
  8
VISIBLE_NARROW__ISO_
 10
203.9044973777847929
 20
147.9552586214738028
 30
0.0
 70
    32
  0
VERTEX
  5
9C5
  8
VISIBLE_NARROW__ISO_
 10
203.9113477714855946
 20
147.9634940545446113
 30
0.0
 70
    32
  0
VERTEX
  5
9C6
  8
VISIBLE_NARROW__ISO_
 10
203.91808005495011
 20
147.9718133458831915
 30
0.0
 70
    32
  0
VERTEX
  5
9C7
  8
VISIBLE_NARROW__ISO_
 10
203.9247335982572054
 20
147.9802145269854918
 30
0.0
 70
    32
  0
VERTEX
  5
9C8
  8
VISIBLE_NARROW__ISO_
 10
203.9312690313279859
 20
147.9886968104501079
 30
0.0
 70
    32
  0
VERTEX
  5
9C9
  8
VISIBLE_NARROW__ISO_
 10
203.9376863541627074
 20
147.9972590151745919
 30
0.0
 70
    32
  0
VERTEX
  5
9CA
  8
VISIBLE_NARROW__ISO_
 10
203.9440249368398099
 20
148.0058991726548925
 30
0.0
 70
    32
  0
VERTEX
  5
9CB
  8
VISIBLE_NARROW__ISO_
 10
203.9502454092807966
 20
148.0146168891903073
 30
0.0
 70
    32
  0
VERTEX
  5
9CC
  8
VISIBLE_NARROW__ISO_
 10
203.9563477714854969
 20
148.0234101962768989
 30
0.0
 70
    32
  0
VERTEX
  5
9CD
  8
VISIBLE_NARROW__ISO_
 10
203.962332023453996
 20
148.0322779128123045
 30
0.0
 70
    32
  0
VERTEX
  5
9CE
  8
VISIBLE_NARROW__ISO_
 10
203.9682375352651036
 20
148.0412188576941901
 30
0.0
 70
    32
  0
VERTEX
  5
9CF
  8
VISIBLE_NARROW__ISO_
 10
203.9740249368398963
 20
148.050231849820193
 30
0.0
 70
    32
  0
VERTEX
  5
9D0
  8
VISIBLE_NARROW__ISO_
 10
203.9796942281784027
 20
148.0593149206864041
 30
0.0
 70
    32
  0
VERTEX
  5
9D1
  8
VISIBLE_NARROW__ISO_
 10
203.9852454092807932
 20
148.0684672828911062
 30
0.0
 70
    32
  0
VERTEX
  5
9D2
  8
VISIBLE_NARROW__ISO_
 10
203.9906784801468973
 20
148.0776873616312059
 30
0.0
 70
    32
  0
VERTEX
  5
9D3
  8
VISIBLE_NARROW__ISO_
 10
203.9960328108556098
 20
148.0869739758045114
 30
0.0
 70
    32
  0
VERTEX
  5
9D4
  8
VISIBLE_NARROW__ISO_
 10
204.0012296612493969
 20
148.0963251569068007
 30
0.0
 70
    32
  0
VERTEX
  5
9D5
  8
VISIBLE_NARROW__ISO_
 10
204.0063477714855082
 20
148.1057401175366977
 30
0.0
 70
    32
  0
VERTEX
  5
9D6
  8
VISIBLE_NARROW__ISO_
 10
204.0113477714855037
 20
148.1152172828909954
 30
0.0
 70
    32
  0
VERTEX
  5
9D7
  8
VISIBLE_NARROW__ISO_
 10
204.0161902911706022
 20
148.124755078166686
 30
0.0
 70
    32
  0
VERTEX
  5
9D8
  8
VISIBLE_NARROW__ISO_
 10
204.0209540706981954
 20
148.1343519285603918
 30
0.0
 70
    32
  0
VERTEX
  5
9D9
  8
VISIBLE_NARROW__ISO_
 10
204.0255997399895023
 20
148.1440070466705947
 30
0.0
 70
    32
  0
VERTEX
  5
9DA
  8
VISIBLE_NARROW__ISO_
 10
204.030127299044608
 20
148.153718070292598
 30
0.0
 70
    32
  0
VERTEX
  5
9DB
  8
VISIBLE_NARROW__ISO_
 10
204.0344973777847883
 20
148.1634846057256993
 30
0.0
 70
    32
  0
VERTEX
  5
9DC
  8
VISIBLE_NARROW__ISO_
 10
204.0387887163674066
 20
148.1733042907650884
 30
0.0
 70
    32
  0
VERTEX
  5
9DD
  8
VISIBLE_NARROW__ISO_
 10
204.0429619447137952
 20
148.1831759443084024
 30
0.0
 70
    32
  0
VERTEX
  5
9DE
  8
VISIBLE_NARROW__ISO_
 10
204.0469776927454006
 20
148.193097597851704
 30
0.0
 70
    32
  0
VERTEX
  5
9DF
  8
VISIBLE_NARROW__ISO_
 10
204.0509147006193871
 20
148.2030700387965965
 30
0.0
 70
    32
  0
VERTEX
  5
9E0
  8
VISIBLE_NARROW__ISO_
 10
204.0546942281783913
 20
148.2130897238359921
 30
0.0
 70
    32
  0
VERTEX
  5
9E1
  8
VISIBLE_NARROW__ISO_
 10
204.0583556455011944
 20
148.223152715961902
 30
0.0
 70
    32
  0
VERTEX
  5
9E2
  8
VISIBLE_NARROW__ISO_
 10
204.0618989525877964
 20
148.2332629521824003
 30
0.0
 70
    32
  0
VERTEX
  5
9E3
  8
VISIBLE_NARROW__ISO_
 10
204.065324149438311
 20
148.2434125584815945
 30
0.0
 70
    32
  0
VERTEX
  5
9E4
  8
VISIBLE_NARROW__ISO_
 10
204.0686312360523971
 20
148.2536094088752918
 30
0.0
 70
    32
  0
VERTEX
  5
9E5
  8
VISIBLE_NARROW__ISO_
 10
204.0717808423516999
 20
148.263841692339895
 30
0.0
 70
    32
  0
VERTEX
  5
9E6
  8
VISIBLE_NARROW__ISO_
 10
204.0748123384146027
 20
148.2741133458831939
 30
0.0
 70
    32
  0
VERTEX
  5
9E7
  8
VISIBLE_NARROW__ISO_
 10
204.0777650943201991
 20
148.2844243695053024
 30
0.0
 70
    32
  0
VERTEX
  5
9E8
  8
VISIBLE_NARROW__ISO_
 10
204.0805209998318901
 20
148.2947668891902993
 30
0.0
 70
    32
  0
VERTEX
  5
9E9
  8
VISIBLE_NARROW__ISO_
 10
204.0831981651863032
 20
148.305144841946202
 30
0.0
 70
    32
  0
VERTEX
  5
9EA
  8
VISIBLE_NARROW__ISO_
 10
204.0857572203044015
 20
148.3155542907651068
 30
0.0
 70
    32
  0
VERTEX
  5
9EB
  8
VISIBLE_NARROW__ISO_
 10
204.0881587951076028
 20
148.3259952356470137
 30
0.0
 70
    32
  0
VERTEX
  5
9EC
  8
VISIBLE_NARROW__ISO_
 10
204.0904422596744894
 20
148.3364676765918944
 30
0.0
 70
    32
  0
VERTEX
  5
9ED
  8
VISIBLE_NARROW__ISO_
 10
204.0925682439265074
 20
148.3469637395839982
 30
0.0
 70
    32
  0
VERTEX
  5
9EE
  8
VISIBLE_NARROW__ISO_
 10
204.0946154880209065
 20
148.3574873616312004
 30
0.0
 70
    32
  0
VERTEX
  5
9EF
  8
VISIBLE_NARROW__ISO_
 10
204.0965052518004939
 20
148.3680346057257111
 30
0.0
 70
    32
  0
VERTEX
  5
9F0
  8
VISIBLE_NARROW__ISO_
 10
204.0982769053437949
 20
148.3786054718675018
 30
0.0
 70
    32
  0
VERTEX
  5
9F1
  8
VISIBLE_NARROW__ISO_
 10
204.0998910785721137
 20
148.3891960230484983
 30
0.0
 70
    32
  0
VERTEX
  5
9F2
  8
VISIBLE_NARROW__ISO_
 10
204.1013871415642882
 20
148.3998101962768885
 30
0.0
 70
    32
  0
VERTEX
  5
9F3
  8
VISIBLE_NARROW__ISO_
 10
204.1027650943202048
 20
148.4104361805289045
 30
0.0
 70
    32
  0
VERTEX
  5
9F4
  8
VISIBLE_NARROW__ISO_
 10
204.1040249368398918
 20
148.4210818498202116
 30
0.0
 70
    32
  0
VERTEX
  5
9F5
  8
VISIBLE_NARROW__ISO_
 10
204.1051272990445966
 20
148.431743267143105
 30
0.0
 70
    32
  0
VERTEX
  5
9F6
  8
VISIBLE_NARROW__ISO_
 10
204.1061115510131003
 20
148.4424164954895105
 30
0.0
 70
    32
  0
VERTEX
  5
9F7
  8
VISIBLE_NARROW__ISO_
 10
204.1069776927452892
 20
148.4531015348595986
 30
0.0
 70
    32
  0
VERTEX
  5
9F8
  8
VISIBLE_NARROW__ISO_
 10
204.1076863541626096
 20
148.4637983852533125
 30
0.0
 70
    32
  0
VERTEX
  5
9F9
  8
VISIBLE_NARROW__ISO_
 10
204.1082769053438142
 20
148.4745031096626917
 30
0.0
 70
    32
  0
VERTEX
  5
9FA
  8
VISIBLE_NARROW__ISO_
 10
204.1087493462885902
 20
148.485211771080003
 30
0.0
 70
    32
  0
VERTEX
  5
9FB
  8
VISIBLE_NARROW__ISO_
 10
204.1090643069186115
 20
148.4959283065130933
 30
0.0
 70
    32
  0
VERTEX
  5
9FC
  8
VISIBLE_NARROW__ISO_
 10
204.1092611573122895
 20
148.5066487789540872
 30
0.0
 70
    32
  0
VERTEX
  5
9FD
  8
VISIBLE_NARROW__ISO_
 10
204.1093398974697948
 20
148.5173692513949959
 30
0.0
 70
    32
  0
SEQEND
  5
9FE
  8
VISIBLE_NARROW__ISO_
  0
LINE
  5
9FF
  8
VISIBLE_NARROW__ISO_
 10
204.1093409367096001
 20
148.5173692946345909
 30
0.0
 11
204.1093409367096001
 21
163.4715540485890131
 31
0.0
  0
VIEWPORT
  5
A4
 67
     1
  8
0
 10
701.0488204376763406
 20
125.1185939022505949
 30
0.0
 40
46.4147238825999011
 41
23.6758335332827201
 68
     1
 69
     1
1001
ACAD
1000
MVIEW
1002
{
1070
    16
1010
0.0
1020
0.0
1030
0.0
1010
0.0
1020
0.0
1030
1.0
1040
0.0
1040
23.6758335332827201
1040
701.0488204376763406
1040
125.1185939022505949
1040
50.0
1040
0.0
1040
0.0
1070
     0
1070
  1000
1070
     1
1070
     1
1070
     0
1070
     0
1070
     0
1070
     0
1040
0.0
1040
0.0
1040
0.0
1040
0.5
1040
0.5
1040
0.5
1040
0.5
1070
     0
1002
{
1002
}
1002
}
  0
LINE
  5
B7
 67
     1
  8
VISIBLE_NARROW__ISO_
 10
712.2540310464675031
 20
134.0150324005591074
 30
0.0
 11
688.875378806661729
 21
134.0150324005591074
 31
0.0
  0
POLYLINE
  5
B8
 67
     1
  8
VISIBLE_NARROW__ISO_
 66
     1
 10
0.0
 20
0.0
 30
0.0
 70
     8
  0
VERTEX
  5
32E
 67
     1
  8
VISIBLE_NARROW__ISO_
 10
688.8753794431155484
 20
134.0150217895244964
 30
0.0
 70
    32
  0
VERTEX
  5
32F
 67
     1
  8
VISIBLE_NARROW__ISO_
 10
688.8646589706746681
 20
134.0149824194458006
 30
0.0
 70
    32
  0
VERTEX
  5
330
 67
     1
  8
VISIBLE_NARROW__ISO_
 10
688.8539384982336742
 20
134.0147855690520942
 30
0.0
 70
    32
  0
VERTEX
  5
331
 67
     1
  8
VISIBLE_NARROW__ISO_
 10
688.8432219628006123
 20
134.0144312383434055
 30
0.0
 70
    32
  0
VERTEX
  5
332
 67
     1
  8
VISIBLE_NARROW__ISO_
 10
688.8325133013831874
 20
134.0139981674772969
 30
0.0
 70
    32
  0
VERTEX
  5
333
 67
     1
  8
VISIBLE_NARROW__ISO_
 10
688.8218085769738082
 20
134.013407616296206
 30
0.0
 70
    32
  0
VERTEX
  5
334
 67
     1
  8
VISIBLE_NARROW__ISO_
 10
688.8111117265800658
 20
134.0126595848001045
 30
0.0
 70
    32
  0
VERTEX
  5
335
 67
     1
  8
VISIBLE_NARROW__ISO_
 10
688.8004266872101198
 20
134.0118328131466114
 30
0.0
 70
    32
  0
VERTEX
  5
336
 67
     1
  8
VISIBLE_NARROW__ISO_
 10
688.789753458863629
 20
134.0108485611781077
 30
0.0
 70
    32
  0
VERTEX
  5
337
 67
     1
  8
VISIBLE_NARROW__ISO_
 10
688.7790920415408209
 20
134.0097068288945934
 30
0.0
 70
    32
  0
VERTEX
  5
338
 67
     1
  8
VISIBLE_NARROW__ISO_
 10
688.7684463722494002
 20
134.0084863564536874
 30
0.0
 70
    32
  0
VERTEX
  5
339
 67
     1
  8
VISIBLE_NARROW__ISO_
 10
688.7578164509894805
 20
134.0071084036977993
 30
0.0
 70
    32
  0
VERTEX
  5
33A
 67
     1
  8
VISIBLE_NARROW__ISO_
 10
688.7472062147691076
 20
134.0055729706269005
 30
0.0
 70
    32
  0
VERTEX
  5
33B
 67
     1
  8
VISIBLE_NARROW__ISO_
 10
688.7366156635880543
 20
134.0039587973984965
 30
0.0
 70
    32
  0
VERTEX
  5
33C
 67
     1
  8
VISIBLE_NARROW__ISO_
 10
688.7260447974463204
 20
134.0021871438551955
 30
0.0
 70
    32
  0
VERTEX
  5
33D
 67
     1
  8
VISIBLE_NARROW__ISO_
 10
688.7154975533518382
 20
134.0002973800756934
 30
0.0
 70
    32
  0
VERTEX
  5
33E
 67
     1
  8
VISIBLE_NARROW__ISO_
 10
688.7049739313046075
 20
133.9982895060599901
 30
0.0
 70
    32
  0
VERTEX
  5
33F
 67
     1
  8
VISIBLE_NARROW__ISO_
 10
688.6944739313045147
 20
133.9961241517293047
 30
0.0
 70
    32
  0
VERTEX
  5
340
 67
     1
  8
VISIBLE_NARROW__ISO_
 10
688.6840054273675378
 20
133.9938406871623044
 30
0.0
 70
    32
  0
VERTEX
  5
341
 67
     1
  8
VISIBLE_NARROW__ISO_
 10
688.6735644824856308
 20
133.9914391123591884
 30
0.0
 70
    32
  0
VERTEX
  5
342
 67
     1
  8
VISIBLE_NARROW__ISO_
 10
688.663155033666726
 20
133.9888800572410901
 30
0.0
 70
    32
  0
VERTEX
  5
343
 67
     1
  8
VISIBLE_NARROW__ISO_
 10
688.6527770809108233
 20
133.9862422619654865
 30
0.0
 70
    32
  0
VERTEX
  5
344
 67
     1
  8
VISIBLE_NARROW__ISO_
 10
688.6424306242179227
 20
133.9834469863749007
 30
0.0
 70
    32
  0
VERTEX
  5
345
 67
     1
  8
VISIBLE_NARROW__ISO_
 10
688.6321235376036611
 20
133.980533600548199
 30
0.0
 70
    32
  0
VERTEX
  5
346
 67
     1
  8
VISIBLE_NARROW__ISO_
 10
688.6218518840604474
 20
133.9774627344064015
 30
0.0
 70
    32
  0
VERTEX
  5
347
 67
     1
  8
VISIBLE_NARROW__ISO_
 10
688.6116156635880543
 20
133.9743131281072124
 30
0.0
 70
    32
  0
VERTEX
  5
348
 67
     1
  8
VISIBLE_NARROW__ISO_
 10
688.6014227502022322
 20
133.9710060414930126
 30
0.0
 70
    32
  0
VERTEX
  5
349
 67
     1
  8
VISIBLE_NARROW__ISO_
 10
688.5912731439028676
 20
133.9675808446426117
 30
0.0
 70
    32
  0
VERTEX
  5
34A
 67
     1
  8
VISIBLE_NARROW__ISO_
 10
688.5811629076823692
 20
133.9640375375560097
 30
0.0
 70
    32
  0
VERTEX
  5
34B
 67
     1
  8
VISIBLE_NARROW__ISO_
 10
688.5710959785486693
 20
133.9603761202332066
 30
0.0
 70
    32
  0
VERTEX
  5
34C
 67
     1
  8
VISIBLE_NARROW__ISO_
 10
688.5610802305171774
 20
133.9565965926740887
 30
0.0
 70
    32
  0
VERTEX
  5
34D
 67
     1
  8
VISIBLE_NARROW__ISO_
 10
688.5511077895722565
 20
133.9526595848001023
 30
0.0
 70
    32
  0
VERTEX
  5
34E
 67
     1
  8
VISIBLE_NARROW__ISO_
 10
688.5411865297297709
 20
133.9486438367686105
 30
0.0
 70
    32
  0
VERTEX
  5
34F
 67
     1
  8
VISIBLE_NARROW__ISO_
 10
688.5313125139815611
 20
133.9444706084221934
 30
0.0
 70
    32
  0
VERTEX
  5
350
 67
     1
  8
VISIBLE_NARROW__ISO_
 10
688.5214936163439461
 20
133.9402186399182142
 30
0.0
 70
    32
  0
VERTEX
  5
351
 67
     1
  8
VISIBLE_NARROW__ISO_
 10
688.511725899808539
 20
133.9358091910993096
 30
0.0
 70
    32
  0
VERTEX
  5
352
 67
     1
  8
VISIBLE_NARROW__ISO_
 10
688.502017238391204
 20
133.9312816320442039
 30
0.0
 70
    32
  0
VERTEX
  5
353
 67
     1
  8
VISIBLE_NARROW__ISO_
 10
688.4923597580761907
 20
133.9266359627528971
 30
0.0
 70
    32
  0
VERTEX
  5
354
 67
     1
  8
VISIBLE_NARROW__ISO_
 10
688.4827652698871816
 20
133.9219115533041133
 30
0.0
 70
    32
  0
VERTEX
  5
355
 67
     1
  8
VISIBLE_NARROW__ISO_
 10
688.4732258998085399
 20
133.9170296635402906
 30
0.0
 70
    32
  0
VERTEX
  5
356
 67
     1
  8
VISIBLE_NARROW__ISO_
 10
688.4637495218557888
 20
133.9120296635402951
 30
0.0
 70
    32
  0
VERTEX
  5
357
 67
     1
  8
VISIBLE_NARROW__ISO_
 10
688.4543361360289282
 20
133.9069509233827944
 30
0.0
 70
    32
  0
VERTEX
  5
358
 67
     1
  8
VISIBLE_NARROW__ISO_
 10
688.4449818053202534
 20
133.9017147029103114
 30
0.0
 70
    32
  0
VERTEX
  5
359
 67
     1
  8
VISIBLE_NARROW__ISO_
 10
688.4356983407533335
 20
133.8963997422804084
 30
0.0
 70
    32
  0
VERTEX
  5
35A
 67
     1
  8
VISIBLE_NARROW__ISO_
 10
688.4264778683124177
 20
133.8909273013356085
 30
0.0
 70
    32
  0
VERTEX
  5
35B
 67
     1
  8
VISIBLE_NARROW__ISO_
 10
688.4173243250053247
 20
133.8853761202331896
 30
0.0
 70
    32
  0
VERTEX
  5
35C
 67
     1
  8
VISIBLE_NARROW__ISO_
 10
688.4082416478398727
 20
133.8797068288945979
 30
0.0
 70
    32
  0
VERTEX
  5
35D
 67
     1
  8
VISIBLE_NARROW__ISO_
 10
688.3992298368164029
 20
133.8739194273198052
 30
0.0
 70
    32
  0
VERTEX
  5
35E
 67
     1
  8
VISIBLE_NARROW__ISO_
 10
688.3902888919343468
 20
133.8680139155088114
 30
0.0
 70
    32
  0
VERTEX
  5
35F
 67
     1
  8
VISIBLE_NARROW__ISO_
 10
688.3814188131942728
 20
133.8620296635403122
 30
0.0
 70
    32
  0
VERTEX
  5
360
 67
     1
  8
VISIBLE_NARROW__ISO_
 10
688.3726274746114768
 20
133.8559273013354982
 30
0.0
 70
    32
  0
VERTEX
  5
361
 67
     1
  8
VISIBLE_NARROW__ISO_
 10
688.363907002170663
 20
133.8497068288945968
 30
0.0
 70
    32
  0
VERTEX
  5
362
 67
     1
  8
VISIBLE_NARROW__ISO_
 10
688.3552692068949455
 20
133.843368246217409
 30
0.0
 70
    32
  0
VERTEX
  5
363
 67
     1
  8
VISIBLE_NARROW__ISO_
 10
688.3467062147691422
 20
133.8369509233828012
 30
0.0
 70
    32
  0
VERTEX
  5
364
 67
     1
  8
VISIBLE_NARROW__ISO_
 10
688.338225899808549
 20
133.830415490311907
 30
0.0
 70
    32
  0
VERTEX
  5
365
 67
     1
  8
VISIBLE_NARROW__ISO_
 10
688.3298243250053474
 20
133.8237619470048116
 30
0.0
 70
    32
  0
VERTEX
  5
366
 67
     1
  8
VISIBLE_NARROW__ISO_
 10
688.3215054273675833
 20
133.8170296635402963
 30
0.0
 70
    32
  0
VERTEX
  5
367
 67
     1
  8
VISIBLE_NARROW__ISO_
 10
688.3132692068951428
 20
133.8101792698394945
 30
0.0
 70
    32
  0
VERTEX
  5
368
 67
     1
  8
VISIBLE_NARROW__ISO_
 10
688.3051156635880261
 20
133.8032501359811874
 30
0.0
 70
    32
  0
VERTEX
  5
369
 67
     1
  8
VISIBLE_NARROW__ISO_
 10
688.29705267146187
 20
133.7962028918867077
 30
0.0
 70
    32
  0
VERTEX
  5
36A
 67
     1
  8
VISIBLE_NARROW__ISO_
 10
688.2890762935093107
 20
133.7890769076346942
 30
0.0
 70
    32
  0
VERTEX
  5
36B
 67
     1
  8
VISIBLE_NARROW__ISO_
 10
688.28118652972978
 20
133.7818328131465933
 30
0.0
 70
    32
  0
VERTEX
  5
36C
 67
     1
  8
VISIBLE_NARROW__ISO_
 10
688.273383380123505
 20
133.7744706084222059
 30
0.0
 70
    32
  0
VERTEX
  5
36D
 67
     1
  8
VISIBLE_NARROW__ISO_
 10
688.2656747187061228
 20
133.7670690336190091
 30
0.0
 70
    32
  0
VERTEX
  5
36E
 67
     1
  8
VISIBLE_NARROW__ISO_
 10
688.2580566084699285
 20
133.7595493485796112
 30
0.0
 70
    32
  0
VERTEX
  5
36F
 67
     1
  8
VISIBLE_NARROW__ISO_
 10
688.2505329864226269
 20
133.7519115533040974
 30
0.0
 70
    32
  0
VERTEX
  5
370
 67
     1
  8
VISIBLE_NARROW__ISO_
 10
688.2431038525644453
 20
133.7441950178709931
 30
0.0
 70
    32
  0
VERTEX
  5
371
 67
     1
  8
VISIBLE_NARROW__ISO_
 10
688.2357692068951565
 20
133.7363997422804118
 30
0.0
 70
    32
  0
VERTEX
  5
372
 67
     1
  8
VISIBLE_NARROW__ISO_
 10
688.2285290494146466
 20
133.7285257265324105
 30
0.0
 70
    32
  0
VERTEX
  5
373
 67
     1
  8
VISIBLE_NARROW__ISO_
 10
688.2213873171313026
 20
133.7205336005482081
 30
0.0
 70
    32
  0
VERTEX
  5
374
 67
     1
  8
VISIBLE_NARROW__ISO_
 10
688.2143479470526017
 20
133.7124627344063867
 30
0.0
 70
    32
  0
VERTEX
  5
375
 67
     1
  8
VISIBLE_NARROW__ISO_
 10
688.2074030651627936
 20
133.7043131281072021
 30
0.0
 70
    32
  0
VERTEX
  5
376
 67
     1
  8
VISIBLE_NARROW__ISO_
 10
688.2005605454777424
 20
133.6960847816505122
 30
0.0
 70
    32
  0
VERTEX
  5
377
 67
     1
  8
VISIBLE_NARROW__ISO_
 10
688.1938203879974481
 20
133.6877776950362886
 30
0.0
 70
    32
  0
VERTEX
  5
378
 67
     1
  8
VISIBLE_NARROW__ISO_
 10
688.1871825927219106
 20
133.6793524981858923
 30
0.0
 70
    32
  0
VERTEX
  5
379
 67
     1
  8
VISIBLE_NARROW__ISO_
 10
688.1806471596510164
 20
133.6708879312568001
 30
0.0
 70
    32
  0
VERTEX
  5
37A
 67
     1
  8
VISIBLE_NARROW__ISO_
 10
688.1742180257925838
 20
133.6623052540915069
 30
0.0
 70
    32
  0
VERTEX
  5
37B
 67
     1
  8
VISIBLE_NARROW__ISO_
 10
688.1678912541392492
 20
133.6536832068474041
 30
0.0
 70
    32
  0
VERTEX
  5
37C
 67
     1
  8
VISIBLE_NARROW__ISO_
 10
688.1616747187059673
 20
133.644982419445796
 30
0.0
 70
    32
  0
VERTEX
  5
37D
 67
     1
  8
VISIBLE_NARROW__ISO_
 10
688.1555644824857154
 20
133.6361635218079869
 30
0.0
 70
    32
  0
VERTEX
  5
37E
 67
     1
  8
VISIBLE_NARROW__ISO_
 10
688.1495605454778115
 20
133.6273052540913966
 30
0.0
 70
    32
  0
VERTEX
  5
37F
 67
     1
  8
VISIBLE_NARROW__ISO_
 10
688.1436707816982334
 20
133.6183682462173863
 30
0.0
 70
    32
  0
VERTEX
  5
380
 67
     1
  8
VISIBLE_NARROW__ISO_
 10
688.1378873171313444
 20
133.6093524981858991
 30
0.0
 70
    32
  0
VERTEX
  5
381
 67
     1
  8
VISIBLE_NARROW__ISO_
 10
688.1322140887848491
 20
133.6002580099969919
 30
0.0
 70
    32
  0
VERTEX
  5
382
 67
     1
  8
VISIBLE_NARROW__ISO_
 10
688.1266550336666796
 20
133.5911241517291899
 30
0.0
 70
    32
  0
VERTEX
  5
383
 67
     1
  8
VISIBLE_NARROW__ISO_
 10
688.1212101517769497
 20
133.5819115533041099
 30
0.0
 70
    32
  0
VERTEX
  5
384
 67
     1
  8
VISIBLE_NARROW__ISO_
 10
688.1158755061077272
 20
133.572620214721411
 30
0.0
 70
    32
  0
VERTEX
  5
385
 67
     1
  8
VISIBLE_NARROW__ISO_
 10
688.1106550336667169
 20
133.5632501359812068
 30
0.0
 70
    32
  0
VERTEX
  5
386
 67
     1
  8
VISIBLE_NARROW__ISO_
 10
688.1055526714620783
 20
133.5538406871623067
 30
0.0
 70
    32
  0
VERTEX
  5
387
 67
     1
  8
VISIBLE_NARROW__ISO_
 10
688.1005644824856518
 20
133.5443524981859014
 30
0.0
 70
    32
  0
VERTEX
  5
388
 67
     1
  8
VISIBLE_NARROW__ISO_
 10
688.0956944037453695
 20
133.5348249391308002
 30
0.0
 70
    32
  0
VERTEX
  5
389
 67
     1
  8
VISIBLE_NARROW__ISO_
 10
688.0909384982336405
 20
133.5252186399181937
 30
0.0
 70
    32
  0
VERTEX
  5
38A
 67
     1
  8
VISIBLE_NARROW__ISO_
 10
688.0863046399658742
 20
133.5155729706268914
 30
0.0
 70
    32
  0
VERTEX
  5
38B
 67
     1
  8
VISIBLE_NARROW__ISO_
 10
688.0817849549265475
 20
133.5058485611781123
 30
0.0
 70
    32
  0
VERTEX
  5
38C
 67
     1
  8
VISIBLE_NARROW__ISO_
 10
688.0773873171312971
 20
133.4960847816504952
 30
0.0
 70
    32
  0
VERTEX
  5
38D
 67
     1
  8
VISIBLE_NARROW__ISO_
 10
688.0731117265801231
 20
133.4862816320442107
 30
0.0
 70
    32
  0
VERTEX
  5
38E
 67
     1
  8
VISIBLE_NARROW__ISO_
 10
688.0689542462650934
 20
133.4763997422803925
 30
0.0
 70
    32
  0
VERTEX
  5
38F
 67
     1
  8
VISIBLE_NARROW__ISO_
 10
688.0649188131942537
 20
133.4664784824379069
 30
0.0
 70
    32
  0
VERTEX
  5
390
 67
     1
  8
VISIBLE_NARROW__ISO_
 10
688.0610054273676042
 20
133.4565178525166118
 30
0.0
 70
    32
  0
VERTEX
  5
391
 67
     1
  8
VISIBLE_NARROW__ISO_
 10
688.0572140887849173
 20
133.4464784824378967
 30
0.0
 70
    32
  0
VERTEX
  5
392
 67
     1
  8
VISIBLE_NARROW__ISO_
 10
688.0535447974461931
 20
133.43643911235921
 30
0.0
 70
    32
  0
VERTEX
  5
393
 67
     1
  8
VISIBLE_NARROW__ISO_
 10
688.0500014903597048
 20
133.4263210021229042
 30
0.0
 70
    32
  0
VERTEX
  5
394
 67
     1
  8
VISIBLE_NARROW__ISO_
 10
688.0465802305170655
 20
133.416163521807988
 30
0.0
 70
    32
  0
VERTEX
  5
395
 67
     1
  8
VISIBLE_NARROW__ISO_
 10
688.0432849549265484
 20
133.4059666714142907
 30
0.0
 70
    32
  0
VERTEX
  5
396
 67
     1
  8
VISIBLE_NARROW__ISO_
 10
688.0401156635880398
 20
133.3957304509418123
 30
0.0
 70
    32
  0
VERTEX
  5
397
 67
     1
  8
VISIBLE_NARROW__ISO_
 10
688.0370723565014259
 20
133.3854548603906949
 30
0.0
 70
    32
  0
VERTEX
  5
398
 67
     1
  8
VISIBLE_NARROW__ISO_
 10
688.0341550336667069
 20
133.3751792698394922
 30
0.0
 70
    32
  0
VERTEX
  5
399
 67
     1
  8
VISIBLE_NARROW__ISO_
 10
688.0313636950841101
 20
133.3648249391308127
 30
0.0
 70
    32
  0
VERTEX
  5
39A
 67
     1
  8
VISIBLE_NARROW__ISO_
 10
688.0286983407532944
 20
133.3544312383434089
 30
0.0
 70
    32
  0
VERTEX
  5
39B
 67
     1
  8
VISIBLE_NARROW__ISO_
 10
688.0261629076825329
 20
133.3440375375560052
 30
0.0
 70
    32
  0
VERTEX
  5
39C
 67
     1
  8
VISIBLE_NARROW__ISO_
 10
688.0237534588635526
 20
133.3336044666899056
 30
0.0
 70
    32
  0
VERTEX
  5
39D
 67
     1
  8
VISIBLE_NARROW__ISO_
 10
688.0214699942966945
 20
133.3231320257449966
 30
0.0
 70
    32
  0
VERTEX
  5
39E
 67
     1
  8
VISIBLE_NARROW__ISO_
 10
688.0193203879974817
 20
133.3126202147213917
 30
0.0
 70
    32
  0
VERTEX
  5
39F
 67
     1
  8
VISIBLE_NARROW__ISO_
 10
688.0172967659501637
 20
133.3021084036977868
 30
0.0
 70
    32
  0
VERTEX
  5
3A0
 67
     1
  8
VISIBLE_NARROW__ISO_
 10
688.0154030651627863
 20
133.2915572225954008
 30
0.0
 70
    32
  0
VERTEX
  5
3A1
 67
     1
  8
VISIBLE_NARROW__ISO_
 10
688.0136353486274174
 20
133.2809666714142907
 30
0.0
 70
    32
  0
VERTEX
  5
3A2
 67
     1
  8
VISIBLE_NARROW__ISO_
 10
688.0120014903596939
 20
133.2703761202332089
 30
0.0
 70
    32
  0
VERTEX
  5
3A3
 67
     1
  8
VISIBLE_NARROW__ISO_
 10
688.0104936163439788
 20
133.2597855690520987
 30
0.0
 70
    32
  0
VERTEX
  5
3A4
 67
     1
  8
VISIBLE_NARROW__ISO_
 10
688.0091196005959091
 20
133.2491556477922074
 30
0.0
 70
    32
  0
VERTEX
  5
3A5
 67
     1
  8
VISIBLE_NARROW__ISO_
 10
688.0078755061075526
 20
133.2384863564537056
 30
0.0
 70
    32
  0
VERTEX
  5
3A6
 67
     1
  8
VISIBLE_NARROW__ISO_
 10
688.0067613328792504
 20
133.227856435193786
 30
0.0
 70
    32
  0
VERTEX
  5
3A7
 67
     1
  8
VISIBLE_NARROW__ISO_
 10
688.0057770809107751
 20
133.2171477737765031
 30
0.0
 70
    32
  0
VERTEX
  5
3A8
 67
     1
  8
VISIBLE_NARROW__ISO_
 10
688.0049227502022404
 20
133.2064784824378876
 30
0.0
 70
    32
  0
VERTEX
  5
3A9
 67
     1
  8
VISIBLE_NARROW__ISO_
 10
688.0042022777612374
 20
133.1957698210206047
 30
0.0
 70
    32
  0
VERTEX
  5
3AA
 67
     1
  8
VISIBLE_NARROW__ISO_
 10
688.0036117265800613
 20
133.1851005296819892
 30
0.0
 70
    32
  0
VERTEX
  5
3AB
 67
     1
  8
VISIBLE_NARROW__ISO_
 10
688.0031510966589394
 20
133.1743524981858968
 30
0.0
 70
    32
  0
VERTEX
  5
3AC
 67
     1
  8
VISIBLE_NARROW__ISO_
 10
688.0028243250053492
 20
133.1636438367686139
 30
0.0
 70
    32
  0
VERTEX
  5
3AD
 67
     1
  8
VISIBLE_NARROW__ISO_
 10
688.0026274746116997
 20
133.1529351753513026
 30
0.0
 70
    32
  0
VERTEX
  5
3AE
 67
     1
  8
VISIBLE_NARROW__ISO_
 10
688.0025605454776496
 20
133.1422265139339913
 30
0.0
 70
    32
  0
SEQEND
  5
3AF
 67
     1
  8
VISIBLE_NARROW__ISO_
  0
LINE
  5
B9
 67
     1
  8
VISIBLE_NARROW__ISO_
 10
688.0025608668366885
 20
133.1422144607342943
 30
0.0
 11
688.0025608668366885
 21
118.1880297067798011
 31
0.0
  0
POLYLINE
  5
BA
 67
     1
  8
VISIBLE_NARROW__ISO_
 66
     1
 10
0.0
 20
0.0
 30
0.0
 70
     8
  0
VERTEX
  5
3B0
 67
     1
  8
VISIBLE_NARROW__ISO_
 10
688.0025605454776496
 20
118.1880296635403056
 30
0.0
 70
    32
  0
VERTEX
  5
3B1
 67
     1
  8
VISIBLE_NARROW__ISO_
 10
688.0026274746116997
 20
118.1773091910992974
 30
0.0
 70
    32
  0
VERTEX
  5
3B2
 67
     1
  8
VISIBLE_NARROW__ISO_
 10
688.0028243250053492
 20
118.166588718658403
 30
0.0
 70
    32
  0
VERTEX
  5
3B3
 67
     1
  8
VISIBLE_NARROW__ISO_
 10
688.0031510966589394
 20
118.1558721832252985
 30
0.0
 70
    32
  0
VERTEX
  5
3B4
 67
     1
  8
VISIBLE_NARROW__ISO_
 10
688.0036117265800613
 20
118.1451635218080014
 30
0.0
 70
    32
  0
VERTEX
  5
3B5
 67
     1
  8
VISIBLE_NARROW__ISO_
 10
688.0042022777612374
 20
118.1344587973984943
 30
0.0
 70
    32
  0
VERTEX
  5
3B6
 67
     1
  8
VISIBLE_NARROW__ISO_
 10
688.0049227502022404
 20
118.1237619470047946
 30
0.0
 70
    32
  0
VERTEX
  5
3B7
 67
     1
  8
VISIBLE_NARROW__ISO_
 10
688.0057770809107751
 20
118.1130769076347065
 30
0.0
 70
    32
  0
VERTEX
  5
3B8
 67
     1
  8
VISIBLE_NARROW__ISO_
 10
688.0067613328792504
 20
118.102403679288301
 30
0.0
 70
    32
  0
VERTEX
  5
3B9
 67
     1
  8
VISIBLE_NARROW__ISO_
 10
688.0078755061075526
 20
118.0917422619655071
 30
0.0
 70
    32
  0
VERTEX
  5
3BA
 67
     1
  8
VISIBLE_NARROW__ISO_
 10
688.0091196005959091
 20
118.0810965926741005
 30
0.0
 70
    32
  0
VERTEX
  5
3BB
 67
     1
  8
VISIBLE_NARROW__ISO_
 10
688.0104936163439788
 20
118.0704706084220987
 30
0.0
 70
    32
  0
VERTEX
  5
3BC
 67
     1
  8
VISIBLE_NARROW__ISO_
 10
688.0120014903596939
 20
118.0598564351937938
 30
0.0
 70
    32
  0
VERTEX
  5
3BD
 67
     1
  8
VISIBLE_NARROW__ISO_
 10
688.0136353486274174
 20
118.0492658840126978
 30
0.0
 70
    32
  0
VERTEX
  5
3BE
 67
     1
  8
VISIBLE_NARROW__ISO_
 10
688.0154030651627863
 20
118.0386950178710066
 30
0.0
 70
    32
  0
VERTEX
  5
3BF
 67
     1
  8
VISIBLE_NARROW__ISO_
 10
688.0172967659501637
 20
118.0281477737764959
 30
0.0
 70
    32
  0
VERTEX
  5
3C0
 67
     1
  8
VISIBLE_NARROW__ISO_
 10
688.0193203879974817
 20
118.0176241517291942
 30
0.0
 70
    32
  0
VERTEX
  5
3C1
 67
     1
  8
VISIBLE_NARROW__ISO_
 10
688.0214699942966945
 20
118.0071280887371046
 30
0.0
 70
    32
  0
VERTEX
  5
3C2
 67
     1
  8
VISIBLE_NARROW__ISO_
 10
688.0237534588635526
 20
117.9966556477921955
 30
0.0
 70
    32
  0
VERTEX
  5
3C3
 67
     1
  8
VISIBLE_NARROW__ISO_
 10
688.0261629076825329
 20
117.9862147029103028
 30
0.0
 70
    32
  0
VERTEX
  5
3C4
 67
     1
  8
VISIBLE_NARROW__ISO_
 10
688.0286983407532944
 20
117.9758052540914974
 30
0.0
 70
    32
  0
VERTEX
  5
3C5
 67
     1
  8
VISIBLE_NARROW__ISO_
 10
688.0313636950841101
 20
117.9654273013354953
 30
0.0
 70
    32
  0
VERTEX
  5
3C6
 67
     1
  8
VISIBLE_NARROW__ISO_
 10
688.0341550336667069
 20
117.9550847816504984
 30
0.0
 70
    32
  0
VERTEX
  5
3C7
 67
     1
  8
VISIBLE_NARROW__ISO_
 10
688.0370723565014259
 20
117.9447737580284041
 30
0.0
 70
    32
  0
VERTEX
  5
3C8
 67
     1
  8
VISIBLE_NARROW__ISO_
 10
688.0401156635880398
 20
117.9345021044851052
 30
0.0
 70
    32
  0
VERTEX
  5
3C9
 67
     1
  8
VISIBLE_NARROW__ISO_
 10
688.0432849549265484
 20
117.9242698210206015
 30
0.0
 70
    32
  0
VERTEX
  5
3CA
 67
     1
  8
VISIBLE_NARROW__ISO_
 10
688.0465802305170655
 20
117.9140729706269042
 30
0.0
 70
    32
  0
VERTEX
  5
3CB
 67
     1
  8
VISIBLE_NARROW__ISO_
 10
688.0500014903597048
 20
117.9039233643276958
 30
0.0
 70
    32
  0
VERTEX
  5
3CC
 67
     1
  8
VISIBLE_NARROW__ISO_
 10
688.0535447974461931
 20
117.8938131281071975
 30
0.0
 70
    32
  0
VERTEX
  5
3CD
 67
     1
  8
VISIBLE_NARROW__ISO_
 10
688.0572140887849173
 20
117.8837501359812023
 30
0.0
 70
    32
  0
VERTEX
  5
3CE
 67
     1
  8
VISIBLE_NARROW__ISO_
 10
688.0610054273676042
 20
117.8737304509418067
 30
0.0
 70
    32
  0
VERTEX
  5
3CF
 67
     1
  8
VISIBLE_NARROW__ISO_
 10
688.0649188131942537
 20
117.8637580099969
 30
0.0
 70
    32
  0
VERTEX
  5
3D0
 67
     1
  8
VISIBLE_NARROW__ISO_
 10
688.0689542462650934
 20
117.8538363564536979
 30
0.0
 70
    32
  0
VERTEX
  5
3D1
 67
     1
  8
VISIBLE_NARROW__ISO_
 10
688.0731117265801231
 20
117.8439647029102986
 30
0.0
 70
    32
  0
VERTEX
  5
3D2
 67
     1
  8
VISIBLE_NARROW__ISO_
 10
688.0773873171312971
 20
117.8341450178709948
 30
0.0
 70
    32
  0
VERTEX
  5
3D3
 67
     1
  8
VISIBLE_NARROW__ISO_
 10
688.0817849549265475
 20
117.8243784824378935
 30
0.0
 70
    32
  0
VERTEX
  5
3D4
 67
     1
  8
VISIBLE_NARROW__ISO_
 10
688.0863046399658742
 20
117.8146674588159044
 30
0.0
 70
    32
  0
VERTEX
  5
3D5
 67
     1
  8
VISIBLE_NARROW__ISO_
 10
688.0909384982336405
 20
117.805012340705602
 30
0.0
 70
    32
  0
VERTEX
  5
3D6
 67
     1
  8
VISIBLE_NARROW__ISO_
 10
688.0956944037453695
 20
117.7954154903118962
 30
0.0
 70
    32
  0
VERTEX
  5
3D7
 67
     1
  8
VISIBLE_NARROW__ISO_
 10
688.1005644824856518
 20
117.7858776950363051
 30
0.0
 70
    32
  0
VERTEX
  5
3D8
 67
     1
  8
VISIBLE_NARROW__ISO_
 10
688.1055526714620783
 20
117.7764005296819931
 30
0.0
 70
    32
  0
VERTEX
  5
3D9
 67
     1
  8
VISIBLE_NARROW__ISO_
 10
688.1106550336667169
 20
117.7669855690520961
 30
0.0
 70
    32
  0
VERTEX
  5
3DA
 67
     1
  8
VISIBLE_NARROW__ISO_
 10
688.1158755061077272
 20
117.7576343879496932
 30
0.0
 70
    32
  0
VERTEX
  5
3DB
 67
     1
  8
VISIBLE_NARROW__ISO_
 10
688.1212101517769497
 20
117.7483477737765014
 30
0.0
 70
    32
  0
VERTEX
  5
3DC
 67
     1
  8
VISIBLE_NARROW__ISO_
 10
688.1266550336666796
 20
117.7391276950363022
 30
0.0
 70
    32
  0
VERTEX
  5
3DD
 67
     1
  8
VISIBLE_NARROW__ISO_
 10
688.1322140887848491
 20
117.7299753328316001
 30
0.0
 70
    32
  0
VERTEX
  5
3DE
 67
     1
  8
VISIBLE_NARROW__ISO_
 10
688.1378873171313444
 20
117.7208922619655027
 30
0.0
 70
    32
  0
VERTEX
  5
3DF
 67
     1
  8
VISIBLE_NARROW__ISO_
 10
688.1436707816982334
 20
117.7118792698394998
 30
0.0
 70
    32
  0
VERTEX
  5
3E0
 67
     1
  8
VISIBLE_NARROW__ISO_
 10
688.1495605454778115
 20
117.7029383249576
 30
0.0
 70
    32
  0
VERTEX
  5
3E1
 67
     1
  8
VISIBLE_NARROW__ISO_
 10
688.1555644824857154
 20
117.6940706084221944
 30
0.0
 70
    32
  0
VERTEX
  5
3E2
 67
     1
  8
VISIBLE_NARROW__ISO_
 10
688.1616747187059673
 20
117.6852773013355034
 30
0.0
 70
    32
  0
VERTEX
  5
3E3
 67
     1
  8
VISIBLE_NARROW__ISO_
 10
688.1678912541392492
 20
117.6765595848001027
 30
0.0
 70
    32
  0
VERTEX
  5
3E4
 67
     1
  8
VISIBLE_NARROW__ISO_
 10
688.1742180257925838
 20
117.6679194273198021
 30
0.0
 70
    32
  0
VERTEX
  5
3E5
 67
     1
  8
VISIBLE_NARROW__ISO_
 10
688.1806471596510164
 20
117.6593572225954034
 30
0.0
 70
    32
  0
VERTEX
  5
3E6
 67
     1
  8
VISIBLE_NARROW__ISO_
 10
688.1871825927219106
 20
117.6508749391308015
 30
0.0
 70
    32
  0
VERTEX
  5
3E7
 67
     1
  8
VISIBLE_NARROW__ISO_
 10
688.1938203879974481
 20
117.6424737580284017
 30
0.0
 70
    32
  0
VERTEX
  5
3E8
 67
     1
  8
VISIBLE_NARROW__ISO_
 10
688.2005605454777424
 20
117.6341544666899068
 30
0.0
 70
    32
  0
VERTEX
  5
3E9
 67
     1
  8
VISIBLE_NARROW__ISO_
 10
688.2074030651627936
 20
117.6259190336189988
 30
0.0
 70
    32
  0
VERTEX
  5
3EA
 67
     1
  8
VISIBLE_NARROW__ISO_
 10
688.2143479470526017
 20
117.6177682462173948
 30
0.0
 70
    32
  0
VERTEX
  5
3EB
 67
     1
  8
VISIBLE_NARROW__ISO_
 10
688.2213873171313026
 20
117.6097032855875
 30
0.0
 70
    32
  0
VERTEX
  5
3EC
 67
     1
  8
VISIBLE_NARROW__ISO_
 10
688.2285290494146466
 20
117.6017253328316059
 30
0.0
 70
    32
  0
VERTEX
  5
3ED
 67
     1
  8
VISIBLE_NARROW__ISO_
 10
688.2357692068951565
 20
117.5938359627529053
 30
0.0
 70
    32
  0
VERTEX
  5
3EE
 67
     1
  8
VISIBLE_NARROW__ISO_
 10
688.2431038525644453
 20
117.5860359627529022
 30
0.0
 70
    32
  0
VERTEX
  5
3EF
 67
     1
  8
VISIBLE_NARROW__ISO_
 10
688.2505329864226269
 20
117.578326907634704
 30
0.0
 70
    32
  0
VERTEX
  5
3F0
 67
     1
  8
VISIBLE_NARROW__ISO_
 10
688.2580566084699285
 20
117.5707091910992972
 30
0.0
 70
    32
  0
VERTEX
  5
3F1
 67
     1
  8
VISIBLE_NARROW__ISO_
 10
688.2656747187061228
 20
117.5631851753512933
 30
0.0
 70
    32
  0
VERTEX
  5
3F2
 67
     1
  8
VISIBLE_NARROW__ISO_
 10
688.273383380123505
 20
117.5557548603906071
 30
0.0
 70
    32
  0
VERTEX
  5
3F3
 67
     1
  8
VISIBLE_NARROW__ISO_
 10
688.28118652972978
 20
117.5484198210206017
 30
0.0
 70
    32
  0
VERTEX
  5
3F4
 67
     1
  8
VISIBLE_NARROW__ISO_
 10
688.2890762935093107
 20
117.5411812383433983
 30
0.0
 70
    32
  0
VERTEX
  5
3F5
 67
     1
  8
VISIBLE_NARROW__ISO_
 10
688.29705267146187
 20
117.5340398997606997
 30
0.0
 70
    32
  0
VERTEX
  5
3F6
 67
     1
  8
VISIBLE_NARROW__ISO_
 10
688.3051156635880261
 20
117.5269973800756986
 30
0.0
 70
    32
  0
VERTEX
  5
3F7
 67
     1
  8
VISIBLE_NARROW__ISO_
 10
688.3132692068951428
 20
117.5200540729890974
 30
0.0
 70
    32
  0
VERTEX
  5
3F8
 67
     1
  8
VISIBLE_NARROW__ISO_
 10
688.3215054273675833
 20
117.5132115533040036
 30
0.0
 70
    32
  0
VERTEX
  5
3F9
 67
     1
  8
VISIBLE_NARROW__ISO_
 10
688.3298243250053474
 20
117.5064706084222053
 30
0.0
 70
    32
  0
VERTEX
  5
3FA
 67
     1
  8
VISIBLE_NARROW__ISO_
 10
688.338225899808549
 20
117.4998324588159022
 30
0.0
 70
    32
  0
VERTEX
  5
3FB
 67
     1
  8
VISIBLE_NARROW__ISO_
 10
688.3467062147691422
 20
117.4932978131465973
 30
0.0
 70
    32
  0
VERTEX
  5
3FC
 67
     1
  8
VISIBLE_NARROW__ISO_
 10
688.3552692068949455
 20
117.4868678131466027
 30
0.0
 70
    32
  0
VERTEX
  5
3FD
 67
     1
  8
VISIBLE_NARROW__ISO_
 10
688.363907002170663
 20
117.4805434036977942
 30
0.0
 70
    32
  0
VERTEX
  5
3FE
 67
     1
  8
VISIBLE_NARROW__ISO_
 10
688.3726274746114768
 20
117.4743255296820053
 30
0.0
 70
    32
  0
VERTEX
  5
3FF
 67
     1
  8
VISIBLE_NARROW__ISO_
 10
688.3814188131942728
 20
117.4682151005480932
 30
0.0
 70
    32
  0
VERTEX
  5
400
 67
     1
  8
VISIBLE_NARROW__ISO_
 10
688.3902888919343468
 20
117.4622130493669943
 30
0.0
 70
    32
  0
VERTEX
  5
401
 67
     1
  8
VISIBLE_NARROW__ISO_
 10
688.3992298368164029
 20
117.456320332831595
 30
0.0
 70
    32
  0
VERTEX
  5
402
 67
     1
  8
VISIBLE_NARROW__ISO_
 10
688.4082416478398727
 20
117.4505377344063959
 30
0.0
 70
    32
  0
VERTEX
  5
403
 67
     1
  8
VISIBLE_NARROW__ISO_
 10
688.4173243250053247
 20
117.4448661989733012
 30
0.0
 70
    32
  0
VERTEX
  5
404
 67
     1
  8
VISIBLE_NARROW__ISO_
 10
688.4264778683124177
 20
117.4393065139339996
 30
0.0
 70
    32
  0
VERTEX
  5
405
 67
     1
  8
VISIBLE_NARROW__ISO_
 10
688.4356983407533335
 20
117.4338595848001034
 30
0.0
 70
    32
  0
VERTEX
  5
406
 67
     1
  8
VISIBLE_NARROW__ISO_
 10
688.4449818053202534
 20
117.4285261989733016
 30
0.0
 70
    32
  0
VERTEX
  5
407
 67
     1
  8
VISIBLE_NARROW__ISO_
 10
688.4543361360289282
 20
117.4233072225953975
 30
0.0
 70
    32
  0
VERTEX
  5
408
 67
     1
  8
VISIBLE_NARROW__ISO_
 10
688.4637495218557888
 20
117.4182032855874951
 30
0.0
 70
    32
  0
VERTEX
  5
409
 67
     1
  8
VISIBLE_NARROW__ISO_
 10
688.4732258998085399
 20
117.413215096611097
 30
0.0
 70
    32
  0
VERTEX
  5
40A
 67
     1
  8
VISIBLE_NARROW__ISO_
 10
688.4827652698871816
 20
117.4083438367685943
 30
0.0
 70
    32
  0
VERTEX
  5
40B
 67
     1
  8
VISIBLE_NARROW__ISO_
 10
688.4923597580761907
 20
117.4035898997607035
 30
0.0
 70
    32
  0
VERTEX
  5
40C
 67
     1
  8
VISIBLE_NARROW__ISO_
 10
688.502017238391204
 20
117.3989536792882973
 30
0.0
 70
    32
  0
VERTEX
  5
40D
 67
     1
  8
VISIBLE_NARROW__ISO_
 10
688.511725899808539
 20
117.3944367501543979
 30
0.0
 70
    32
  0
VERTEX
  5
40E
 67
     1
  8
VISIBLE_NARROW__ISO_
 10
688.5214936163439461
 20
117.3900387186584027
 30
0.0
 70
    32
  0
VERTEX
  5
40F
 67
     1
  8
VISIBLE_NARROW__ISO_
 10
688.5313125139815611
 20
117.3857611596033053
 30
0.0
 70
    32
  0
VERTEX
  5
410
 67
     1
  8
VISIBLE_NARROW__ISO_
 10
688.5411865297297709
 20
117.3816044666898932
 30
0.0
 70
    32
  0
VERTEX
  5
411
 67
     1
  8
VISIBLE_NARROW__ISO_
 10
688.5511077895722565
 20
117.3775690336189967
 30
0.0
 70
    32
  0
VERTEX
  5
412
 67
     1
  8
VISIBLE_NARROW__ISO_
 10
688.5610802305171774
 20
117.3736552540914033
 30
0.0
 70
    32
  0
VERTEX
  5
413
 67
     1
  8
VISIBLE_NARROW__ISO_
 10
688.5710959785486693
 20
117.3698647029103057
 30
0.0
 70
    32
  0
VERTEX
  5
414
 67
     1
  8
VISIBLE_NARROW__ISO_
 10
688.5811629076823692
 20
117.3661965926741004
 30
0.0
 70
    32
  0
VERTEX
  5
415
 67
     1
  8
VISIBLE_NARROW__ISO_
 10
688.5912731439028676
 20
117.3626528918866967
 30
0.0
 70
    32
  0
VERTEX
  5
416
 67
     1
  8
VISIBLE_NARROW__ISO_
 10
688.6014227502022322
 20
117.3592328131466047
 30
0.0
 70
    32
  0
VERTEX
  5
417
 67
     1
  8
VISIBLE_NARROW__ISO_
 10
688.6116156635880543
 20
117.3559379312568041
 30
0.0
 70
    32
  0
VERTEX
  5
418
 67
     1
  8
VISIBLE_NARROW__ISO_
 10
688.6218518840604474
 20
117.3527678525166067
 30
0.0
 70
    32
  0
VERTEX
  5
419
 67
     1
  8
VISIBLE_NARROW__ISO_
 10
688.6321235376036611
 20
117.3497237580285031
 30
0.0
 70
    32
  0
VERTEX
  5
41A
 67
     1
  8
VISIBLE_NARROW__ISO_
 10
688.6424306242179227
 20
117.3468056477921948
 30
0.0
 70
    32
  0
VERTEX
  5
41B
 67
     1
  8
VISIBLE_NARROW__ISO_
 10
688.6527770809108233
 20
117.3440143092094985
 30
0.0
 70
    32
  0
VERTEX
  5
41C
 67
     1
  8
VISIBLE_NARROW__ISO_
 10
688.663155033666726
 20
117.3413497422803999
 30
0.0
 70
    32
  0
VERTEX
  5
41D
 67
     1
  8
VISIBLE_NARROW__ISO_
 10
688.6735644824856308
 20
117.3388131281072049
 30
0.0
 70
    32
  0
VERTEX
  5
41E
 67
     1
  8
VISIBLE_NARROW__ISO_
 10
688.6840054273675378
 20
117.3364036792882956
 30
0.0
 70
    32
  0
VERTEX
  5
41F
 67
     1
  8
VISIBLE_NARROW__ISO_
 10
688.6944739313045147
 20
117.3341229706268933
 30
0.0
 70
    32
  0
VERTEX
  5
420
 67
     1
  8
VISIBLE_NARROW__ISO_
 10
688.7049739313046075
 20
117.3319702147213945
 30
0.0
 70
    32
  0
VERTEX
  5
421
 67
     1
  8
VISIBLE_NARROW__ISO_
 10
688.7154975533518382
 20
117.329946592674105
 30
0.0
 70
    32
  0
VERTEX
  5
422
 67
     1
  8
VISIBLE_NARROW__ISO_
 10
688.7260447974463204
 20
117.3280521044850957
 30
0.0
 70
    32
  0
VERTEX
  5
423
 67
     1
  8
VISIBLE_NARROW__ISO_
 10
688.7366156635880543
 20
117.3262871438551969
 30
0.0
 70
    32
  0
VERTEX
  5
424
 67
     1
  8
VISIBLE_NARROW__ISO_
 10
688.7472062147691076
 20
117.3246517107843943
 30
0.0
 70
    32
  0
VERTEX
  5
425
 67
     1
  8
VISIBLE_NARROW__ISO_
 10
688.7578164509894805
 20
117.3231461989733049
 30
0.0
 70
    32
  0
VERTEX
  5
426
 67
     1
  8
VISIBLE_NARROW__ISO_
 10
688.7684463722494002
 20
117.321771002122901
 30
0.0
 70
    32
  0
VERTEX
  5
427
 67
     1
  8
VISIBLE_NARROW__ISO_
 10
688.7790920415408209
 20
117.3205257265323951
 30
0.0
 70
    32
  0
VERTEX
  5
428
 67
     1
  8
VISIBLE_NARROW__ISO_
 10
688.789753458863629
 20
117.3194115533039934
 30
0.0
 70
    32
  0
VERTEX
  5
429
 67
     1
  8
VISIBLE_NARROW__ISO_
 10
688.8004266872101198
 20
117.3184276950363056
 30
0.0
 70
    32
  0
VERTEX
  5
42A
 67
     1
  8
VISIBLE_NARROW__ISO_
 10
688.8111117265800658
 20
117.3175749391307932
 30
0.0
 70
    32
  0
VERTEX
  5
42B
 67
     1
  8
VISIBLE_NARROW__ISO_
 10
688.8218085769738082
 20
117.3168528918866969
 30
0.0
 70
    32
  0
VERTEX
  5
42C
 67
     1
  8
VISIBLE_NARROW__ISO_
 10
688.8325133013831874
 20
117.316262340705606
 30
0.0
 70
    32
  0
VERTEX
  5
42D
 67
     1
  8
VISIBLE_NARROW__ISO_
 10
688.8432219628006123
 20
117.3158028918867046
 30
0.0
 70
    32
  0
VERTEX
  5
42E
 67
     1
  8
VISIBLE_NARROW__ISO_
 10
688.8539384982336742
 20
117.315474545430007
 30
0.0
 70
    32
  0
VERTEX
  5
42F
 67
     1
  8
VISIBLE_NARROW__ISO_
 10
688.8646589706746681
 20
117.3152773013354988
 30
0.0
 70
    32
  0
VERTEX
  5
430
 67
     1
  8
VISIBLE_NARROW__ISO_
 10
688.8753794431155484
 20
117.3152119470047978
 30
0.0
 70
    32
  0
SEQEND
  5
431
 67
     1
  8
VISIBLE_NARROW__ISO_
  0
LINE
  5
BB
 67
     1
  8
VISIBLE_NARROW__ISO_
 10
688.875378806661729
 20
117.3152117669550023
 30
0.0
 11
712.2540310464675031
 21
117.3152117669549028
 31
0.0
  0
POLYLINE
  5
BC
 67
     1
  8
VISIBLE_NARROW__ISO_
 66
     1
 10
0.0
 20
0.0
 30
0.0
 70
     8
  0
VERTEX
  5
432
 67
     1
  8
VISIBLE_NARROW__ISO_
 10
713.1268479470526245
 20
133.1422265139339913
 30
0.0
 70
    32
  0
VERTEX
  5
433
 67
     1
  8
VISIBLE_NARROW__ISO_
 10
713.1267692068951192
 20
133.1529351753513026
 30
0.0
 70
    32
  0
VERTEX
  5
434
 67
     1
  8
VISIBLE_NARROW__ISO_
 10
713.1265723565013559
 20
133.1636438367686139
 30
0.0
 70
    32
  0
VERTEX
  5
435
 67
     1
  8
VISIBLE_NARROW__ISO_
 10
713.1262573958714484
 20
133.1743524981858968
 30
0.0
 70
    32
  0
VERTEX
  5
436
 67
     1
  8
VISIBLE_NARROW__ISO_
 10
713.1257849549266439
 20
133.1851005296819892
 30
0.0
 70
    32
  0
VERTEX
  5
437
 67
     1
  8
VISIBLE_NARROW__ISO_
 10
713.1251944037454678
 20
133.1957698210206047
 30
0.0
 70
    32
  0
VERTEX
  5
438
 67
     1
  8
VISIBLE_NARROW__ISO_
 10
713.1244857423281474
 20
133.2064784824378876
 30
0.0
 70
    32
  0
VERTEX
  5
439
 67
     1
  8
VISIBLE_NARROW__ISO_
 10
713.12361960059593
 20
133.2171477737765031
 30
0.0
 70
    32
  0
VERTEX
  5
43A
 67
     1
  8
VISIBLE_NARROW__ISO_
 10
713.1226353486274547
 20
133.227856435193786
 30
0.0
 70
    32
  0
VERTEX
  5
43B
 67
     1
  8
VISIBLE_NARROW__ISO_
 10
713.1215329864227215
 20
133.2384863564537056
 30
0.0
 70
    32
  0
VERTEX
  5
43C
 67
     1
  8
VISIBLE_NARROW__ISO_
 10
713.1202731439029776
 20
133.2491556477922074
 30
0.0
 70
    32
  0
VERTEX
  5
43D
 67
     1
  8
VISIBLE_NARROW__ISO_
 10
713.1188951911470895
 20
133.2597855690520987
 30
0.0
 70
    32
  0
VERTEX
  5
43E
 67
     1
  8
VISIBLE_NARROW__ISO_
 10
713.1173991281549434
 20
133.2703761202332089
 30
0.0
 70
    32
  0
VERTEX
  5
43F
 67
     1
  8
VISIBLE_NARROW__ISO_
 10
713.115784954926653
 20
133.2809666714142907
 30
0.0
 70
    32
  0
VERTEX
  5
440
 67
     1
  8
VISIBLE_NARROW__ISO_
 10
713.114013301383352
 20
133.2915572225954008
 30
0.0
 70
    32
  0
VERTEX
  5
441
 67
     1
  8
VISIBLE_NARROW__ISO_
 10
713.112123537603793
 20
133.3021084036977868
 30
0.0
 70
    32
  0
VERTEX
  5
442
 67
     1
  8
VISIBLE_NARROW__ISO_
 10
713.1100762935093371
 20
133.3126202147213917
 30
0.0
 70
    32
  0
VERTEX
  5
443
 67
     1
  8
VISIBLE_NARROW__ISO_
 10
713.1079503092572622
 20
133.3231320257449966
 30
0.0
 70
    32
  0
VERTEX
  5
444
 67
     1
  8
VISIBLE_NARROW__ISO_
 10
713.1056668446904041
 20
133.3336044666899056
 30
0.0
 70
    32
  0
VERTEX
  5
445
 67
     1
  8
VISIBLE_NARROW__ISO_
 10
713.1032652698871743
 20
133.3440375375560052
 30
0.0
 70
    32
  0
VERTEX
  5
446
 67
     1
  8
VISIBLE_NARROW__ISO_
 10
713.1007062147690476
 20
133.3544312383434089
 30
0.0
 70
    32
  0
VERTEX
  5
447
 67
     1
  8
VISIBLE_NARROW__ISO_
 10
713.0980290494146629
 20
133.3648249391308127
 30
0.0
 70
    32
  0
VERTEX
  5
448
 67
     1
  8
VISIBLE_NARROW__ISO_
 10
713.0952731439028867
 20
133.3751792698394922
 30
0.0
 70
    32
  0
VERTEX
  5
449
 67
     1
  8
VISIBLE_NARROW__ISO_
 10
713.0923203879973471
 20
133.3854548603906949
 30
0.0
 70
    32
  0
VERTEX
  5
44A
 67
     1
  8
VISIBLE_NARROW__ISO_
 10
713.0892888919345296
 20
133.3957304509418123
 30
0.0
 70
    32
  0
VERTEX
  5
44B
 67
     1
  8
VISIBLE_NARROW__ISO_
 10
713.0861392856352268
 20
133.4059666714142907
 30
0.0
 70
    32
  0
VERTEX
  5
44C
 67
     1
  8
VISIBLE_NARROW__ISO_
 10
713.0828321990211407
 20
133.416163521807988
 30
0.0
 70
    32
  0
VERTEX
  5
44D
 67
     1
  8
VISIBLE_NARROW__ISO_
 10
713.079407002170683
 20
133.4263210021229042
 30
0.0
 70
    32
  0
VERTEX
  5
44E
 67
     1
  8
VISIBLE_NARROW__ISO_
 10
713.0758636950839673
 20
133.43643911235921
 30
0.0
 70
    32
  0
VERTEX
  5
44F
 67
     1
  8
VISIBLE_NARROW__ISO_
 10
713.072202277761221
 20
133.4464784824378967
 30
0.0
 70
    32
  0
VERTEX
  5
450
 67
     1
  8
VISIBLE_NARROW__ISO_
 10
713.0684227502022168
 20
133.4565178525166118
 30
0.0
 70
    32
  0
VERTEX
  5
451
 67
     1
  8
VISIBLE_NARROW__ISO_
 10
713.0644857423280882
 20
133.4664784824379069
 30
0.0
 70
    32
  0
VERTEX
  5
452
 67
     1
  8
VISIBLE_NARROW__ISO_
 10
713.0604699942965681
 20
133.4763997422803925
 30
0.0
 70
    32
  0
VERTEX
  5
453
 67
     1
  8
VISIBLE_NARROW__ISO_
 10
713.0562967659502647
 20
133.4862816320442107
 30
0.0
 70
    32
  0
VERTEX
  5
454
 67
     1
  8
VISIBLE_NARROW__ISO_
 10
713.0520054273674759
 20
133.4960847816504952
 30
0.0
 70
    32
  0
VERTEX
  5
455
 67
     1
  8
VISIBLE_NARROW__ISO_
 10
713.0476353486272956
 20
133.5058485611781123
 30
0.0
 70
    32
  0
VERTEX
  5
456
 67
     1
  8
VISIBLE_NARROW__ISO_
 10
713.043107789572332
 20
133.5155729706268914
 30
0.0
 70
    32
  0
VERTEX
  5
457
 67
     1
  8
VISIBLE_NARROW__ISO_
 10
713.0384621202809967
 20
133.5252186399181937
 30
0.0
 70
    32
  0
VERTEX
  5
458
 67
     1
  8
VISIBLE_NARROW__ISO_
 10
713.0336983407532898
 20
133.5348249391308002
 30
0.0
 70
    32
  0
VERTEX
  5
459
 67
     1
  8
VISIBLE_NARROW__ISO_
 10
713.028855821068305
 20
133.5443524981859014
 30
0.0
 70
    32
  0
VERTEX
  5
45A
 67
     1
  8
VISIBLE_NARROW__ISO_
 10
713.0238558210683095
 20
133.5538406871623067
 30
0.0
 70
    32
  0
VERTEX
  5
45B
 67
     1
  8
VISIBLE_NARROW__ISO_
 10
713.0187377108320561
 20
133.5632501359812068
 30
0.0
 70
    32
  0
VERTEX
  5
45C
 67
     1
  8
VISIBLE_NARROW__ISO_
 10
713.0135408604384111
 20
133.572620214721411
 30
0.0
 70
    32
  0
VERTEX
  5
45D
 67
     1
  8
VISIBLE_NARROW__ISO_
 10
713.0081865297297554
 20
133.5819115533041099
 30
0.0
 70
    32
  0
VERTEX
  5
45E
 67
     1
  8
VISIBLE_NARROW__ISO_
 10
713.0027534588634808
 20
133.5911241517291899
 30
0.0
 70
    32
  0
VERTEX
  5
45F
 67
     1
  8
VISIBLE_NARROW__ISO_
 10
712.9972022777612892
 20
133.6002580099969919
 30
0.0
 70
    32
  0
VERTEX
  5
460
 67
     1
  8
VISIBLE_NARROW__ISO_
 10
712.991532986422726
 20
133.6093524981858991
 30
0.0
 70
    32
  0
VERTEX
  5
461
 67
     1
  8
VISIBLE_NARROW__ISO_
 10
712.9857455848479049
 20
133.6183682462173863
 30
0.0
 70
    32
  0
VERTEX
  5
462
 67
     1
  8
VISIBLE_NARROW__ISO_
 10
712.9798400730368257
 20
133.6273052540913966
 30
0.0
 70
    32
  0
VERTEX
  5
463
 67
     1
  8
VISIBLE_NARROW__ISO_
 10
712.973855821068355
 20
133.6361635218079869
 30
0.0
 70
    32
  0
VERTEX
  5
464
 67
     1
  8
VISIBLE_NARROW__ISO_
 10
712.9677534588636263
 20
133.644982419445796
 30
0.0
 70
    32
  0
VERTEX
  5
465
 67
     1
  8
VISIBLE_NARROW__ISO_
 10
712.9615329864226396
 20
133.6536832068474041
 30
0.0
 70
    32
  0
VERTEX
  5
466
 67
     1
  8
VISIBLE_NARROW__ISO_
 10
712.9551944037455087
 20
133.6623052540915069
 30
0.0
 70
    32
  0
VERTEX
  5
467
 67
     1
  8
VISIBLE_NARROW__ISO_
 10
712.9487770809108724
 20
133.6708879312568001
 30
0.0
 70
    32
  0
VERTEX
  5
468
 67
     1
  8
VISIBLE_NARROW__ISO_
 10
712.9422416478399782
 20
133.6793524981858923
 30
0.0
 70
    32
  0
VERTEX
  5
469
 67
     1
  8
VISIBLE_NARROW__ISO_
 10
712.9355881045329397
 20
133.6877776950362886
 30
0.0
 70
    32
  0
VERTEX
  5
46A
 67
     1
  8
VISIBLE_NARROW__ISO_
 10
712.9288558210682822
 20
133.6960847816505122
 30
0.0
 70
    32
  0
VERTEX
  5
46B
 67
     1
  8
VISIBLE_NARROW__ISO_
 10
712.9220054273675942
 20
133.7043131281072021
 30
0.0
 70
    32
  0
VERTEX
  5
46C
 67
     1
  8
VISIBLE_NARROW__ISO_
 10
712.9150762935091734
 20
133.7124627344063867
 30
0.0
 70
    32
  0
VERTEX
  5
46D
 67
     1
  8
VISIBLE_NARROW__ISO_
 10
712.9080290494148358
 20
133.7205336005482081
 30
0.0
 70
    32
  0
VERTEX
  5
46E
 67
     1
  8
VISIBLE_NARROW__ISO_
 10
712.9008636950841264
 20
133.7285257265324105
 30
0.0
 70
    32
  0
VERTEX
  5
46F
 67
     1
  8
VISIBLE_NARROW__ISO_
 10
712.8936589706745508
 20
133.7363997422804118
 30
0.0
 70
    32
  0
VERTEX
  5
470
 67
     1
  8
VISIBLE_NARROW__ISO_
 10
712.8862967659500782
 20
133.7441950178709931
 30
0.0
 70
    32
  0
VERTEX
  5
471
 67
     1
  8
VISIBLE_NARROW__ISO_
 10
712.8788951911469667
 20
133.7519115533040974
 30
0.0
 70
    32
  0
VERTEX
  5
472
 67
     1
  8
VISIBLE_NARROW__ISO_
 10
712.8713361360288445
 20
133.7595493485796112
 30
0.0
 70
    32
  0
VERTEX
  5
473
 67
     1
  8
VISIBLE_NARROW__ISO_
 10
712.8637377108319697
 20
133.7670690336190091
 30
0.0
 70
    32
  0
VERTEX
  5
474
 67
     1
  8
VISIBLE_NARROW__ISO_
 10
712.8560211753989506
 20
133.7744706084222059
 30
0.0
 70
    32
  0
VERTEX
  5
475
 67
     1
  8
VISIBLE_NARROW__ISO_
 10
712.8482258998085399
 20
133.7818328131465933
 30
0.0
 70
    32
  0
VERTEX
  5
476
 67
     1
  8
VISIBLE_NARROW__ISO_
 10
712.8403518840605102
 20
133.7890769076346942
 30
0.0
 70
    32
  0
VERTEX
  5
477
 67
     1
  8
VISIBLE_NARROW__ISO_
 10
712.8323597580762225
 20
133.7962028918867077
 30
0.0
 70
    32
  0
VERTEX
  5
478
 67
     1
  8
VISIBLE_NARROW__ISO_
 10
712.8242888919345432
 20
133.8032501359811874
 30
0.0
 70
    32
  0
VERTEX
  5
479
 67
     1
  8
VISIBLE_NARROW__ISO_
 10
712.816139285635245
 20
133.8101792698394945
 30
0.0
 70
    32
  0
VERTEX
  5
47A
 67
     1
  8
VISIBLE_NARROW__ISO_
 10
712.8079109391785551
 20
133.8170296635402963
 30
0.0
 70
    32
  0
VERTEX
  5
47B
 67
     1
  8
VISIBLE_NARROW__ISO_
 10
712.7996038525642462
 20
133.8237619470048116
 30
0.0
 70
    32
  0
VERTEX
  5
47C
 67
     1
  8
VISIBLE_NARROW__ISO_
 10
712.7911786557140204
 20
133.830415490311907
 30
0.0
 70
    32
  0
VERTEX
  5
47D
 67
     1
  8
VISIBLE_NARROW__ISO_
 10
712.7827140887849282
 20
133.8369509233828012
 30
0.0
 70
    32
  0
VERTEX
  5
47E
 67
     1
  8
VISIBLE_NARROW__ISO_
 10
712.7741314116194644
 20
133.843368246217409
 30
0.0
 70
    32
  0
VERTEX
  5
47F
 67
     1
  8
VISIBLE_NARROW__ISO_
 10
712.7655093643753617
 20
133.8497068288945968
 30
0.0
 70
    32
  0
VERTEX
  5
480
 67
     1
  8
VISIBLE_NARROW__ISO_
 10
712.7567692068951146
 20
133.8559273013354982
 30
0.0
 70
    32
  0
VERTEX
  5
481
 67
     1
  8
VISIBLE_NARROW__ISO_
 10
712.7479896793361149
 20
133.8620296635403122
 30
0.0
 70
    32
  0
VERTEX
  5
482
 67
     1
  8
VISIBLE_NARROW__ISO_
 10
712.7391314116194962
 20
133.8680139155088114
 30
0.0
 70
    32
  0
VERTEX
  5
483
 67
     1
  8
VISIBLE_NARROW__ISO_
 10
712.7301944037454859
 20
133.8739194273198052
 30
0.0
 70
    32
  0
VERTEX
  5
484
 67
     1
  8
VISIBLE_NARROW__ISO_
 10
712.7211786557139703
 20
133.8797068288945979
 30
0.0
 70
    32
  0
VERTEX
  5
485
 67
     1
  8
VISIBLE_NARROW__ISO_
 10
712.7120841675249494
 20
133.8853761202331896
 30
0.0
 70
    32
  0
VERTEX
  5
486
 67
     1
  8
VISIBLE_NARROW__ISO_
 10
712.7029503092572895
 20
133.8909273013356085
 30
0.0
 70
    32
  0
VERTEX
  5
487
 67
     1
  8
VISIBLE_NARROW__ISO_
 10
712.693698340753258
 20
133.8963997422804084
 30
0.0
 70
    32
  0
VERTEX
  5
488
 67
     1
  8
VISIBLE_NARROW__ISO_
 10
712.6844070021705875
 20
133.9017147029103114
 30
0.0
 70
    32
  0
VERTEX
  5
489
 67
     1
  8
VISIBLE_NARROW__ISO_
 10
712.675076293509278
 20
133.9069509233827944
 30
0.0
 70
    32
  0
VERTEX
  5
48A
 67
     1
  8
VISIBLE_NARROW__ISO_
 10
712.6656668446903495
 20
133.9120296635402951
 30
0.0
 70
    32
  0
VERTEX
  5
48B
 67
     1
  8
VISIBLE_NARROW__ISO_
 10
712.6561786557140294
 20
133.9170296635402906
 30
0.0
 70
    32
  0
VERTEX
  5
48C
 67
     1
  8
VISIBLE_NARROW__ISO_
 10
712.6466510966589567
 20
133.9219115533041133
 30
0.0
 70
    32
  0
VERTEX
  5
48D
 67
     1
  8
VISIBLE_NARROW__ISO_
 10
712.6370447974461513
 20
133.9266359627528971
 30
0.0
 70
    32
  0
VERTEX
  5
48E
 67
     1
  8
VISIBLE_NARROW__ISO_
 10
712.6273991281549343
 20
133.9312816320442039
 30
0.0
 70
    32
  0
VERTEX
  5
48F
 67
     1
  8
VISIBLE_NARROW__ISO_
 10
712.6176747187059846
 20
133.9358091910993096
 30
0.0
 70
    32
  0
VERTEX
  5
490
 67
     1
  8
VISIBLE_NARROW__ISO_
 10
712.6079109391786233
 20
133.9402186399182142
 30
0.0
 70
    32
  0
VERTEX
  5
491
 67
     1
  8
VISIBLE_NARROW__ISO_
 10
712.5981077895722819
 20
133.9444706084221934
 30
0.0
 70
    32
  0
VERTEX
  5
492
 67
     1
  8
VISIBLE_NARROW__ISO_
 10
712.588225899808549
 20
133.9486438367686105
 30
0.0
 70
    32
  0
VERTEX
  5
493
 67
     1
  8
VISIBLE_NARROW__ISO_
 10
712.5783046399659497
 20
133.9526595848001023
 30
0.0
 70
    32
  0
VERTEX
  5
494
 67
     1
  8
VISIBLE_NARROW__ISO_
 10
712.5683440100447115
 20
133.9565965926740887
 30
0.0
 70
    32
  0
VERTEX
  5
495
 67
     1
  8
VISIBLE_NARROW__ISO_
 10
712.5583046399658542
 20
133.9603761202332066
 30
0.0
 70
    32
  0
VERTEX
  5
496
 67
     1
  8
VISIBLE_NARROW__ISO_
 10
712.5482652698872243
 20
133.9640375375560097
 30
0.0
 70
    32
  0
VERTEX
  5
497
 67
     1
  8
VISIBLE_NARROW__ISO_
 10
712.5381471596509755
 20
133.9675808446426117
 30
0.0
 70
    32
  0
VERTEX
  5
498
 67
     1
  8
VISIBLE_NARROW__ISO_
 10
712.5279896793360876
 20
133.9710060414930126
 30
0.0
 70
    32
  0
VERTEX
  5
499
 67
     1
  8
VISIBLE_NARROW__ISO_
 10
712.5177928289423335
 20
133.9743131281072124
 30
0.0
 70
    32
  0
VERTEX
  5
49A
 67
     1
  8
VISIBLE_NARROW__ISO_
 10
712.5075566084699403
 20
133.9774627344064015
 30
0.0
 70
    32
  0
VERTEX
  5
49B
 67
     1
  8
VISIBLE_NARROW__ISO_
 10
712.4972810179187945
 20
133.980533600548199
 30
0.0
 70
    32
  0
VERTEX
  5
49C
 67
     1
  8
VISIBLE_NARROW__ISO_
 10
712.4869660572887824
 20
133.9834469863749007
 30
0.0
 70
    32
  0
VERTEX
  5
49D
 67
     1
  8
VISIBLE_NARROW__ISO_
 10
712.4766510966588839
 20
133.9862422619654865
 30
0.0
 70
    32
  0
VERTEX
  5
49E
 67
     1
  8
VISIBLE_NARROW__ISO_
 10
712.4662573958714802
 20
133.9888800572410901
 30
0.0
 70
    32
  0
VERTEX
  5
49F
 67
     1
  8
VISIBLE_NARROW__ISO_
 10
712.4558636950839627
 20
133.9914391123591884
 30
0.0
 70
    32
  0
VERTEX
  5
4A0
 67
     1
  8
VISIBLE_NARROW__ISO_
 10
712.4453912541390537
 20
133.9938406871623044
 30
0.0
 70
    32
  0
VERTEX
  5
4A1
 67
     1
  8
VISIBLE_NARROW__ISO_
 10
712.434918813194372
 20
133.9961241517293047
 30
0.0
 70
    32
  0
VERTEX
  5
4A2
 67
     1
  8
VISIBLE_NARROW__ISO_
 10
712.4244463722494629
 20
133.9982895060599901
 30
0.0
 70
    32
  0
VERTEX
  5
4A3
 67
     1
  8
VISIBLE_NARROW__ISO_
 10
712.4138951911470485
 20
134.0002973800756934
 30
0.0
 70
    32
  0
VERTEX
  5
4A4
 67
     1
  8
VISIBLE_NARROW__ISO_
 10
712.4033833801235005
 20
134.0021871438551955
 30
0.0
 70
    32
  0
VERTEX
  5
4A5
 67
     1
  8
VISIBLE_NARROW__ISO_
 10
712.3927928289423335
 20
134.0039587973984965
 30
0.0
 70
    32
  0
VERTEX
  5
4A6
 67
     1
  8
VISIBLE_NARROW__ISO_
 10
712.3822022777612801
 20
134.0055729706269005
 30
0.0
 70
    32
  0
VERTEX
  5
4A7
 67
     1
  8
VISIBLE_NARROW__ISO_
 10
712.3715723565013604
 20
134.0071084036977993
 30
0.0
 70
    32
  0
VERTEX
  5
4A8
 67
     1
  8
VISIBLE_NARROW__ISO_
 10
712.3609818053203071
 20
134.0084863564536874
 30
0.0
 70
    32
  0
VERTEX
  5
4A9
 67
     1
  8
VISIBLE_NARROW__ISO_
 10
712.3503125139817485
 20
134.0097068288945934
 30
0.0
 70
    32
  0
VERTEX
  5
4AA
 67
     1
  8
VISIBLE_NARROW__ISO_
 10
712.3396432226431898
 20
134.0108485611781077
 30
0.0
 70
    32
  0
VERTEX
  5
4AB
 67
     1
  8
VISIBLE_NARROW__ISO_
 10
712.3289739313045175
 20
134.0118328131466114
 30
0.0
 70
    32
  0
VERTEX
  5
4AC
 67
     1
  8
VISIBLE_NARROW__ISO_
 10
712.3183046399659588
 20
134.0126595848001045
 30
0.0
 70
    32
  0
VERTEX
  5
4AD
 67
     1
  8
VISIBLE_NARROW__ISO_
 10
712.3075959785486475
 20
134.013407616296206
 30
0.0
 70
    32
  0
VERTEX
  5
4AE
 67
     1
  8
VISIBLE_NARROW__ISO_
 10
712.2968873171313362
 20
134.0139981674772969
 30
0.0
 70
    32
  0
VERTEX
  5
4AF
 67
     1
  8
VISIBLE_NARROW__ISO_
 10
712.2861786557140249
 20
134.0144312383434055
 30
0.0
 70
    32
  0
VERTEX
  5
4B0
 67
     1
  8
VISIBLE_NARROW__ISO_
 10
712.2754699942967136
 20
134.0147855690520942
 30
0.0
 70
    32
  0
VERTEX
  5
4B1
 67
     1
  8
VISIBLE_NARROW__ISO_
 10
712.2647613328794023
 20
134.0149824194458006
 30
0.0
 70
    32
  0
VERTEX
  5
4B2
 67
     1
  8
VISIBLE_NARROW__ISO_
 10
712.2540133013833383
 20
134.0150217895244964
 30
0.0
 70
    32
  0
SEQEND
  5
4B3
 67
     1
  8
VISIBLE_NARROW__ISO_
  0
POLYLINE
  5
BD
 67
     1
  8
VISIBLE_NARROW__ISO_
 66
     1
 10
0.0
 20
0.0
 30
0.0
 70
     8
  0
VERTEX
  5
4B4
 67
     1
  8
VISIBLE_NARROW__ISO_
 10
712.2540133013833383
 20
117.3152119470047978
 30
0.0
 70
    32
  0
VERTEX
  5
4B5
 67
     1
  8
VISIBLE_NARROW__ISO_
 10
712.2647613328794023
 20
117.3152773013354988
 30
0.0
 70
    32
  0
VERTEX
  5
4B6
 67
     1
  8
VISIBLE_NARROW__ISO_
 10
712.2754699942967136
 20
117.315474545430007
 30
0.0
 70
    32
  0
VERTEX
  5
4B7
 67
     1
  8
VISIBLE_NARROW__ISO_
 10
712.2861786557140249
 20
117.3158028918867046
 30
0.0
 70
    32
  0
VERTEX
  5
4B8
 67
     1
  8
VISIBLE_NARROW__ISO_
 10
712.2968873171313362
 20
117.316262340705606
 30
0.0
 70
    32
  0
VERTEX
  5
4B9
 67
     1
  8
VISIBLE_NARROW__ISO_
 10
712.3075959785486475
 20
117.3168528918866969
 30
0.0
 70
    32
  0
VERTEX
  5
4BA
 67
     1
  8
VISIBLE_NARROW__ISO_
 10
712.3183046399659588
 20
117.3175749391307932
 30
0.0
 70
    32
  0
VERTEX
  5
4BB
 67
     1
  8
VISIBLE_NARROW__ISO_
 10
712.3289739313045175
 20
117.3184276950363056
 30
0.0
 70
    32
  0
VERTEX
  5
4BC
 67
     1
  8
VISIBLE_NARROW__ISO_
 10
712.3396432226431898
 20
117.3194115533039934
 30
0.0
 70
    32
  0
VERTEX
  5
4BD
 67
     1
  8
VISIBLE_NARROW__ISO_
 10
712.3503125139817485
 20
117.3205257265323951
 30
0.0
 70
    32
  0
VERTEX
  5
4BE
 67
     1
  8
VISIBLE_NARROW__ISO_
 10
712.3609818053203071
 20
117.321771002122901
 30
0.0
 70
    32
  0
VERTEX
  5
4BF
 67
     1
  8
VISIBLE_NARROW__ISO_
 10
712.3715723565013604
 20
117.3231461989733049
 30
0.0
 70
    32
  0
VERTEX
  5
4C0
 67
     1
  8
VISIBLE_NARROW__ISO_
 10
712.3822022777612801
 20
117.3246517107843943
 30
0.0
 70
    32
  0
VERTEX
  5
4C1
 67
     1
  8
VISIBLE_NARROW__ISO_
 10
712.3927928289423335
 20
117.3262871438551969
 30
0.0
 70
    32
  0
VERTEX
  5
4C2
 67
     1
  8
VISIBLE_NARROW__ISO_
 10
712.4033833801235005
 20
117.3280521044850957
 30
0.0
 70
    32
  0
VERTEX
  5
4C3
 67
     1
  8
VISIBLE_NARROW__ISO_
 10
712.4138951911470485
 20
117.329946592674105
 30
0.0
 70
    32
  0
VERTEX
  5
4C4
 67
     1
  8
VISIBLE_NARROW__ISO_
 10
712.4244463722494629
 20
117.3319702147213945
 30
0.0
 70
    32
  0
VERTEX
  5
4C5
 67
     1
  8
VISIBLE_NARROW__ISO_
 10
712.434918813194372
 20
117.3341229706268933
 30
0.0
 70
    32
  0
VERTEX
  5
4C6
 67
     1
  8
VISIBLE_NARROW__ISO_
 10
712.4453912541390537
 20
117.3364036792882956
 30
0.0
 70
    32
  0
VERTEX
  5
4C7
 67
     1
  8
VISIBLE_NARROW__ISO_
 10
712.4558636950839627
 20
117.3388131281072049
 30
0.0
 70
    32
  0
VERTEX
  5
4C8
 67
     1
  8
VISIBLE_NARROW__ISO_
 10
712.4662573958714802
 20
117.3413497422803999
 30
0.0
 70
    32
  0
VERTEX
  5
4C9
 67
     1
  8
VISIBLE_NARROW__ISO_
 10
712.4766510966588839
 20
117.3440143092094985
 30
0.0
 70
    32
  0
VERTEX
  5
4CA
 67
     1
  8
VISIBLE_NARROW__ISO_
 10
712.4869660572887824
 20
117.3468056477921948
 30
0.0
 70
    32
  0
VERTEX
  5
4CB
 67
     1
  8
VISIBLE_NARROW__ISO_
 10
712.4972810179187945
 20
117.3497237580285031
 30
0.0
 70
    32
  0
VERTEX
  5
4CC
 67
     1
  8
VISIBLE_NARROW__ISO_
 10
712.5075566084699403
 20
117.3527678525166067
 30
0.0
 70
    32
  0
VERTEX
  5
4CD
 67
     1
  8
VISIBLE_NARROW__ISO_
 10
712.5177928289423335
 20
117.3559379312568041
 30
0.0
 70
    32
  0
VERTEX
  5
4CE
 67
     1
  8
VISIBLE_NARROW__ISO_
 10
712.5279896793360876
 20
117.3592328131466047
 30
0.0
 70
    32
  0
VERTEX
  5
4CF
 67
     1
  8
VISIBLE_NARROW__ISO_
 10
712.5381471596509755
 20
117.3626528918866967
 30
0.0
 70
    32
  0
VERTEX
  5
4D0
 67
     1
  8
VISIBLE_NARROW__ISO_
 10
712.5482652698872243
 20
117.3661965926741004
 30
0.0
 70
    32
  0
VERTEX
  5
4D1
 67
     1
  8
VISIBLE_NARROW__ISO_
 10
712.5583046399658542
 20
117.3698647029103057
 30
0.0
 70
    32
  0
VERTEX
  5
4D2
 67
     1
  8
VISIBLE_NARROW__ISO_
 10
712.5683440100447115
 20
117.3736552540914033
 30
0.0
 70
    32
  0
VERTEX
  5
4D3
 67
     1
  8
VISIBLE_NARROW__ISO_
 10
712.5783046399659497
 20
117.3775690336189967
 30
0.0
 70
    32
  0
VERTEX
  5
4D4
 67
     1
  8
VISIBLE_NARROW__ISO_
 10
712.588225899808549
 20
117.3816044666898932
 30
0.0
 70
    32
  0
VERTEX
  5
4D5
 67
     1
  8
VISIBLE_NARROW__ISO_
 10
712.5981077895722819
 20
117.3857611596033053
 30
0.0
 70
    32
  0
VERTEX
  5
4D6
 67
     1
  8
VISIBLE_NARROW__ISO_
 10
712.6079109391786233
 20
117.3900387186584027
 30
0.0
 70
    32
  0
VERTEX
  5
4D7
 67
     1
  8
VISIBLE_NARROW__ISO_
 10
712.6176747187059846
 20
117.3944367501543979
 30
0.0
 70
    32
  0
VERTEX
  5
4D8
 67
     1
  8
VISIBLE_NARROW__ISO_
 10
712.6273991281549343
 20
117.3989536792882973
 30
0.0
 70
    32
  0
VERTEX
  5
4D9
 67
     1
  8
VISIBLE_NARROW__ISO_
 10
712.6370447974461513
 20
117.4035898997607035
 30
0.0
 70
    32
  0
VERTEX
  5
4DA
 67
     1
  8
VISIBLE_NARROW__ISO_
 10
712.6466510966589567
 20
117.4083438367685943
 30
0.0
 70
    32
  0
VERTEX
  5
4DB
 67
     1
  8
VISIBLE_NARROW__ISO_
 10
712.6561786557140294
 20
117.413215096611097
 30
0.0
 70
    32
  0
VERTEX
  5
4DC
 67
     1
  8
VISIBLE_NARROW__ISO_
 10
712.6656668446903495
 20
117.4182032855874951
 30
0.0
 70
    32
  0
VERTEX
  5
4DD
 67
     1
  8
VISIBLE_NARROW__ISO_
 10
712.675076293509278
 20
117.4233072225953975
 30
0.0
 70
    32
  0
VERTEX
  5
4DE
 67
     1
  8
VISIBLE_NARROW__ISO_
 10
712.6844070021705875
 20
117.4285261989733016
 30
0.0
 70
    32
  0
VERTEX
  5
4DF
 67
     1
  8
VISIBLE_NARROW__ISO_
 10
712.693698340753258
 20
117.4338595848001034
 30
0.0
 70
    32
  0
VERTEX
  5
4E0
 67
     1
  8
VISIBLE_NARROW__ISO_
 10
712.7029503092572895
 20
117.4393065139339996
 30
0.0
 70
    32
  0
VERTEX
  5
4E1
 67
     1
  8
VISIBLE_NARROW__ISO_
 10
712.7120841675249494
 20
117.4448661989733012
 30
0.0
 70
    32
  0
VERTEX
  5
4E2
 67
     1
  8
VISIBLE_NARROW__ISO_
 10
712.7211786557139703
 20
117.4505377344063959
 30
0.0
 70
    32
  0
VERTEX
  5
4E3
 67
     1
  8
VISIBLE_NARROW__ISO_
 10
712.7301944037454859
 20
117.456320332831595
 30
0.0
 70
    32
  0
VERTEX
  5
4E4
 67
     1
  8
VISIBLE_NARROW__ISO_
 10
712.7391314116194962
 20
117.4622130493669943
 30
0.0
 70
    32
  0
VERTEX
  5
4E5
 67
     1
  8
VISIBLE_NARROW__ISO_
 10
712.7479896793361149
 20
117.4682151005480932
 30
0.0
 70
    32
  0
VERTEX
  5
4E6
 67
     1
  8
VISIBLE_NARROW__ISO_
 10
712.7567692068951146
 20
117.4743255296820053
 30
0.0
 70
    32
  0
VERTEX
  5
4E7
 67
     1
  8
VISIBLE_NARROW__ISO_
 10
712.7655093643753617
 20
117.4805434036977942
 30
0.0
 70
    32
  0
VERTEX
  5
4E8
 67
     1
  8
VISIBLE_NARROW__ISO_
 10
712.7741314116194644
 20
117.4868678131466027
 30
0.0
 70
    32
  0
VERTEX
  5
4E9
 67
     1
  8
VISIBLE_NARROW__ISO_
 10
712.7827140887849282
 20
117.4932978131465973
 30
0.0
 70
    32
  0
VERTEX
  5
4EA
 67
     1
  8
VISIBLE_NARROW__ISO_
 10
712.7911786557140204
 20
117.4998324588159022
 30
0.0
 70
    32
  0
VERTEX
  5
4EB
 67
     1
  8
VISIBLE_NARROW__ISO_
 10
712.7996038525642462
 20
117.5064706084222053
 30
0.0
 70
    32
  0
VERTEX
  5
4EC
 67
     1
  8
VISIBLE_NARROW__ISO_
 10
712.8079109391785551
 20
117.5132115533040036
 30
0.0
 70
    32
  0
VERTEX
  5
4ED
 67
     1
  8
VISIBLE_NARROW__ISO_
 10
712.816139285635245
 20
117.5200540729890974
 30
0.0
 70
    32
  0
VERTEX
  5
4EE
 67
     1
  8
VISIBLE_NARROW__ISO_
 10
712.8242888919345432
 20
117.5269973800756986
 30
0.0
 70
    32
  0
VERTEX
  5
4EF
 67
     1
  8
VISIBLE_NARROW__ISO_
 10
712.8323597580762225
 20
117.5340398997606997
 30
0.0
 70
    32
  0
VERTEX
  5
4F0
 67
     1
  8
VISIBLE_NARROW__ISO_
 10
712.8403518840605102
 20
117.5411812383433983
 30
0.0
 70
    32
  0
VERTEX
  5
4F1
 67
     1
  8
VISIBLE_NARROW__ISO_
 10
712.8482258998085399
 20
117.5484198210206017
 30
0.0
 70
    32
  0
VERTEX
  5
4F2
 67
     1
  8
VISIBLE_NARROW__ISO_
 10
712.8560211753989506
 20
117.5557548603906071
 30
0.0
 70
    32
  0
VERTEX
  5
4F3
 67
     1
  8
VISIBLE_NARROW__ISO_
 10
712.8637377108319697
 20
117.5631851753512933
 30
0.0
 70
    32
  0
VERTEX
  5
4F4
 67
     1
  8
VISIBLE_NARROW__ISO_
 10
712.8713361360288445
 20
117.5707091910992972
 30
0.0
 70
    32
  0
VERTEX
  5
4F5
 67
     1
  8
VISIBLE_NARROW__ISO_
 10
712.8788951911469667
 20
117.578326907634704
 30
0.0
 70
    32
  0
VERTEX
  5
4F6
 67
     1
  8
VISIBLE_NARROW__ISO_
 10
712.8862967659500782
 20
117.5860359627529022
 30
0.0
 70
    32
  0
VERTEX
  5
4F7
 67
     1
  8
VISIBLE_NARROW__ISO_
 10
712.8936589706745508
 20
117.5938359627529053
 30
0.0
 70
    32
  0
VERTEX
  5
4F8
 67
     1
  8
VISIBLE_NARROW__ISO_
 10
712.9008636950841264
 20
117.6017253328316059
 30
0.0
 70
    32
  0
VERTEX
  5
4F9
 67
     1
  8
VISIBLE_NARROW__ISO_
 10
712.9080290494148358
 20
117.6097032855875
 30
0.0
 70
    32
  0
VERTEX
  5
4FA
 67
     1
  8
VISIBLE_NARROW__ISO_
 10
712.9150762935091734
 20
117.6177682462173948
 30
0.0
 70
    32
  0
VERTEX
  5
4FB
 67
     1
  8
VISIBLE_NARROW__ISO_
 10
712.9220054273675942
 20
117.6259190336189988
 30
0.0
 70
    32
  0
VERTEX
  5
4FC
 67
     1
  8
VISIBLE_NARROW__ISO_
 10
712.9288558210682822
 20
117.6341544666899068
 30
0.0
 70
    32
  0
VERTEX
  5
4FD
 67
     1
  8
VISIBLE_NARROW__ISO_
 10
712.9355881045329397
 20
117.6424737580284017
 30
0.0
 70
    32
  0
VERTEX
  5
4FE
 67
     1
  8
VISIBLE_NARROW__ISO_
 10
712.9422416478399782
 20
117.6508749391308015
 30
0.0
 70
    32
  0
VERTEX
  5
4FF
 67
     1
  8
VISIBLE_NARROW__ISO_
 10
712.9487770809108724
 20
117.6593572225954034
 30
0.0
 70
    32
  0
VERTEX
  5
500
 67
     1
  8
VISIBLE_NARROW__ISO_
 10
712.9551944037455087
 20
117.6679194273198021
 30
0.0
 70
    32
  0
VERTEX
  5
501
 67
     1
  8
VISIBLE_NARROW__ISO_
 10
712.9615329864226396
 20
117.6765595848001027
 30
0.0
 70
    32
  0
VERTEX
  5
502
 67
     1
  8
VISIBLE_NARROW__ISO_
 10
712.9677534588636263
 20
117.6852773013355034
 30
0.0
 70
    32
  0
VERTEX
  5
503
 67
     1
  8
VISIBLE_NARROW__ISO_
 10
712.973855821068355
 20
117.6940706084221944
 30
0.0
 70
    32
  0
VERTEX
  5
504
 67
     1
  8
VISIBLE_NARROW__ISO_
 10
712.9798400730368257
 20
117.7029383249576
 30
0.0
 70
    32
  0
VERTEX
  5
505
 67
     1
  8
VISIBLE_NARROW__ISO_
 10
712.9857455848479049
 20
117.7118792698394998
 30
0.0
 70
    32
  0
VERTEX
  5
506
 67
     1
  8
VISIBLE_NARROW__ISO_
 10
712.991532986422726
 20
117.7208922619655027
 30
0.0
 70
    32
  0
VERTEX
  5
507
 67
     1
  8
VISIBLE_NARROW__ISO_
 10
712.9972022777612892
 20
117.7299753328316001
 30
0.0
 70
    32
  0
VERTEX
  5
508
 67
     1
  8
VISIBLE_NARROW__ISO_
 10
713.0027534588634808
 20
117.7391276950363022
 30
0.0
 70
    32
  0
VERTEX
  5
509
 67
     1
  8
VISIBLE_NARROW__ISO_
 10
713.0081865297297554
 20
117.7483477737765014
 30
0.0
 70
    32
  0
VERTEX
  5
50A
 67
     1
  8
VISIBLE_NARROW__ISO_
 10
713.0135408604384111
 20
117.7576343879496932
 30
0.0
 70
    32
  0
VERTEX
  5
50B
 67
     1
  8
VISIBLE_NARROW__ISO_
 10
713.0187377108320561
 20
117.7669855690520961
 30
0.0
 70
    32
  0
VERTEX
  5
50C
 67
     1
  8
VISIBLE_NARROW__ISO_
 10
713.0238558210683095
 20
117.7764005296819931
 30
0.0
 70
    32
  0
VERTEX
  5
50D
 67
     1
  8
VISIBLE_NARROW__ISO_
 10
713.028855821068305
 20
117.7858776950363051
 30
0.0
 70
    32
  0
VERTEX
  5
50E
 67
     1
  8
VISIBLE_NARROW__ISO_
 10
713.0336983407532898
 20
117.7954154903118962
 30
0.0
 70
    32
  0
VERTEX
  5
50F
 67
     1
  8
VISIBLE_NARROW__ISO_
 10
713.0384621202809967
 20
117.805012340705602
 30
0.0
 70
    32
  0
VERTEX
  5
510
 67
     1
  8
VISIBLE_NARROW__ISO_
 10
713.043107789572332
 20
117.8146674588159044
 30
0.0
 70
    32
  0
VERTEX
  5
511
 67
     1
  8
VISIBLE_NARROW__ISO_
 10
713.0476353486272956
 20
117.8243784824378935
 30
0.0
 70
    32
  0
VERTEX
  5
512
 67
     1
  8
VISIBLE_NARROW__ISO_
 10
713.0520054273674759
 20
117.8341450178709948
 30
0.0
 70
    32
  0
VERTEX
  5
513
 67
     1
  8
VISIBLE_NARROW__ISO_
 10
713.0562967659502647
 20
117.8439647029102986
 30
0.0
 70
    32
  0
VERTEX
  5
514
 67
     1
  8
VISIBLE_NARROW__ISO_
 10
713.0604699942965681
 20
117.8538363564536979
 30
0.0
 70
    32
  0
VERTEX
  5
515
 67
     1
  8
VISIBLE_NARROW__ISO_
 10
713.0644857423280882
 20
117.8637580099969
 30
0.0
 70
    32
  0
VERTEX
  5
516
 67
     1
  8
VISIBLE_NARROW__ISO_
 10
713.0684227502022168
 20
117.8737304509418067
 30
0.0
 70
    32
  0
VERTEX
  5
517
 67
     1
  8
VISIBLE_NARROW__ISO_
 10
713.072202277761221
 20
117.8837501359812023
 30
0.0
 70
    32
  0
VERTEX
  5
518
 67
     1
  8
VISIBLE_NARROW__ISO_
 10
713.0758636950839673
 20
117.8938131281071975
 30
0.0
 70
    32
  0
VERTEX
  5
519
 67
     1
  8
VISIBLE_NARROW__ISO_
 10
713.079407002170683
 20
117.9039233643276958
 30
0.0
 70
    32
  0
VERTEX
  5
51A
 67
     1
  8
VISIBLE_NARROW__ISO_
 10
713.0828321990211407
 20
117.9140729706269042
 30
0.0
 70
    32
  0
VERTEX
  5
51B
 67
     1
  8
VISIBLE_NARROW__ISO_
 10
713.0861392856352268
 20
117.9242698210206015
 30
0.0
 70
    32
  0
VERTEX
  5
51C
 67
     1
  8
VISIBLE_NARROW__ISO_
 10
713.0892888919345296
 20
117.9345021044851052
 30
0.0
 70
    32
  0
VERTEX
  5
51D
 67
     1
  8
VISIBLE_NARROW__ISO_
 10
713.0923203879973471
 20
117.9447737580284041
 30
0.0
 70
    32
  0
VERTEX
  5
51E
 67
     1
  8
VISIBLE_NARROW__ISO_
 10
713.0952731439028867
 20
117.9550847816504984
 30
0.0
 70
    32
  0
VERTEX
  5
51F
 67
     1
  8
VISIBLE_NARROW__ISO_
 10
713.0980290494146629
 20
117.9654273013354953
 30
0.0
 70
    32
  0
VERTEX
  5
520
 67
     1
  8
VISIBLE_NARROW__ISO_
 10
713.1007062147690476
 20
117.9758052540914974
 30
0.0
 70
    32
  0
VERTEX
  5
521
 67
     1
  8
VISIBLE_NARROW__ISO_
 10
713.1032652698871743
 20
117.9862147029103028
 30
0.0
 70
    32
  0
VERTEX
  5
522
 67
     1
  8
VISIBLE_NARROW__ISO_
 10
713.1056668446904041
 20
117.9966556477921955
 30
0.0
 70
    32
  0
VERTEX
  5
523
 67
     1
  8
VISIBLE_NARROW__ISO_
 10
713.1079503092572622
 20
118.0071280887371046
 30
0.0
 70
    32
  0
VERTEX
  5
524
 67
     1
  8
VISIBLE_NARROW__ISO_
 10
713.1100762935093371
 20
118.0176241517291942
 30
0.0
 70
    32
  0
VERTEX
  5
525
 67
     1
  8
VISIBLE_NARROW__ISO_
 10
713.112123537603793
 20
118.0281477737764959
 30
0.0
 70
    32
  0
VERTEX
  5
526
 67
     1
  8
VISIBLE_NARROW__ISO_
 10
713.114013301383352
 20
118.0386950178710066
 30
0.0
 70
    32
  0
VERTEX
  5
527
 67
     1
  8
VISIBLE_NARROW__ISO_
 10
713.115784954926653
 20
118.0492658840126978
 30
0.0
 70
    32
  0
VERTEX
  5
528
 67
     1
  8
VISIBLE_NARROW__ISO_
 10
713.1173991281549434
 20
118.0598564351937938
 30
0.0
 70
    32
  0
VERTEX
  5
529
 67
     1
  8
VISIBLE_NARROW__ISO_
 10
713.1188951911470895
 20
118.0704706084220987
 30
0.0
 70
    32
  0
VERTEX
  5
52A
 67
     1
  8
VISIBLE_NARROW__ISO_
 10
713.1202731439029776
 20
118.0810965926741005
 30
0.0
 70
    32
  0
VERTEX
  5
52B
 67
     1
  8
VISIBLE_NARROW__ISO_
 10
713.1215329864227215
 20
118.0917422619655071
 30
0.0
 70
    32
  0
VERTEX
  5
52C
 67
     1
  8
VISIBLE_NARROW__ISO_
 10
713.1226353486274547
 20
118.102403679288301
 30
0.0
 70
    32
  0
VERTEX
  5
52D
 67
     1
  8
VISIBLE_NARROW__ISO_
 10
713.12361960059593
 20
118.1130769076347065
 30
0.0
 70
    32
  0
VERTEX
  5
52E
 67
     1
  8
VISIBLE_NARROW__ISO_
 10
713.1244857423281474
 20
118.1237619470047946
 30
0.0
 70
    32
  0
VERTEX
  5
52F
 67
     1
  8
VISIBLE_NARROW__ISO_
 10
713.1251944037454678
 20
118.1344587973984943
 30
0.0
 70
    32
  0
VERTEX
  5
530
 67
     1
  8
VISIBLE_NARROW__ISO_
 10
713.1257849549266439
 20
118.1451635218080014
 30
0.0
 70
    32
  0
VERTEX
  5
531
 67
     1
  8
VISIBLE_NARROW__ISO_
 10
713.1262573958714484
 20
118.1558721832252985
 30
0.0
 70
    32
  0
VERTEX
  5
532
 67
     1
  8
VISIBLE_NARROW__ISO_
 10
713.1265723565013559
 20
118.166588718658403
 30
0.0
 70
    32
  0
VERTEX
  5
533
 67
     1
  8
VISIBLE_NARROW__ISO_
 10
713.1267692068951192
 20
118.1773091910992974
 30
0.0
 70
    32
  0
VERTEX
  5
534
 67
     1
  8
VISIBLE_NARROW__ISO_
 10
713.1268479470526245
 20
118.1880296635403056
 30
0.0
 70
    32
  0
SEQEND
  5
535
 67
     1
  8
VISIBLE_NARROW__ISO_
  0
LINE
  5
BE
 67
     1
  8
VISIBLE_NARROW__ISO_
 10
713.1268489862924298
 20
118.1880297067798011
 30
0.0
 11
713.1268489862924298
 21
133.1422144607342091
 31
0.0
  0
ENDSEC
  0
EOF
