  0
SECTION
  2
HEADER
  9
$ACADVER
  1
AC1009
  9
$INSBASE
 10
0.0
 20
0.0
 30
0.0
  9
$EXTMIN
 10
7.3582927339594528
 20
3.3852572606936571
 30
0.0
  9
$EXTMAX
 10
37.3811857777551566
 20
22.7884362466031689
 30
0.0
  9
$LIMMIN
 10
0.0
 20
0.0
  9
$LIMMAX
 10
12.0
 20
9.0
  9
$ORTHOMODE
 70
     0
  9
$REGENMODE
 70
     1
  9
$FILLMODE
 70
     1
  9
$QTEXTMODE
 70
     0
  9
$MIRRTEXT
 70
     0
  9
$DRAGMODE
 70
     2
  9
$LTSCALE
 40
1.0
  9
$OSMODE
 70
   695
  9
$ATTMODE
 70
     1
  9
$TEXTSIZE
 40
0.2
  9
$TRACEWID
 40
0.05
  9
$TEXTSTYLE
  7
STANDARD
  9
$CLAYER
  8
0
  9
$CELTYPE
  6
BYLAYER
  9
$CECOLOR
 62
   256
  9
$DIMSCALE
 40
1.0
  9
$DIMASZ
 40
0.18
  9
$DIMEXO
 40
0.0625
  9
$DIMDLI
 40
0.38
  9
$DIMRND
 40
0.0
  9
$DIMDLE
 40
0.0
  9
$DIMEXE
 40
0.18
  9
$DIMTP
 40
0.0
  9
$DIMTM
 40
0.0
  9
$DIMTXT
 40
0.18
  9
$DIMCEN
 40
0.09
  9
$DIMTSZ
 40
0.0
  9
$DIMTOL
 70
     0
  9
$DIMLIM
 70
     0
  9
$DIMTIH
 70
     1
  9
$DIMTOH
 70
     1
  9
$DIMSE1
 70
     0
  9
$DIMSE2
 70
     0
  9
$DIMTAD
 70
     0
  9
$DIMZIN
 70
     0
  9
$DIMBLK
  1

  9
$DIMASO
 70
     1
  9
$DIMSHO
 70
     1
  9
$DIMPOST
  1

  9
$DIMAPOST
  1

  9
$DIMALT
 70
     0
  9
$DIMALTD
 70
     2
  9
$DIMALTF
 40
25.3999999999999986
  9
$DIMLFAC
 40
1.0
  9
$DIMTOFL
 70
     0
  9
$DIMTVP
 40
0.0
  9
$DIMTIX
 70
     0
  9
$DIMSOXD
 70
     0
  9
$DIMSAH
 70
     0
  9
$DIMBLK1
  1

  9
$DIMBLK2
  1

  9
$DIMSTYLE
  2
STANDARD
  9
$DIMCLRD
 70
     0
  9
$DIMCLRE
 70
     0
  9
$DIMCLRT
 70
     0
  9
$DIMTFAC
 40
1.0
  9
$DIMGAP
 40
0.09
  9
$LUNITS
 70
     2
  9
$LUPREC
 70
     4
  9
$SKETCHINC
 40
0.1
  9
$FILLETRAD
 40
0.0
  9
$AUNITS
 70
     0
  9
$AUPREC
 70
     0
  9
$MENU
  1
.
  9
$ELEVATION
 40
0.0
  9
$PELEVATION
 40
0.0
  9
$THICKNESS
 40
0.0
  9
$LIMCHECK
 70
     0
  9
$BLIPMODE
 70
     0
  9
$CHAMFERA
 40
0.0
  9
$CHAMFERB
 40
0.0
  9
$SKPOLY
 70
     0
  9
$TDCREATE
 40
2459084.7162037040106952
  9
$TDUPDATE
 40
2459084.7171643520705402
  9
$TDINDWG
 40
0.0009722222
  9
$TDUSRTIMER
 40
0.0009722222
  9
$USRTIMER
 70
     1
  9
$ANGBASE
 50
0.0
  9
$ANGDIR
 70
     0
  9
$PDMODE
 70
     0
  9
$PDSIZE
 40
0.0
  9
$PLINEWID
 40
0.0
  9
$COORDS
 70
     1
  9
$SPLFRAME
 70
     0
  9
$SPLINETYPE
 70
     6
  9
$SPLINESEGS
 70
     8
  9
$ATTDIA
 70
     1
  9
$ATTREQ
 70
     1
  9
$HANDLING
 70
     1
  9
$HANDSEED
  5
D58
  9
$SURFTAB1
 70
     6
  9
$SURFTAB2
 70
     6
  9
$SURFTYPE
 70
     6
  9
$SURFU
 70
     6
  9
$SURFV
 70
     6
  9
$UCSNAME
  2

  9
$UCSORG
 10
0.0
 20
0.0
 30
0.0
  9
$UCSXDIR
 10
1.0
 20
0.0
 30
0.0
  9
$UCSYDIR
 10
0.0
 20
1.0
 30
0.0
  9
$PUCSNAME
  2

  9
$PUCSORG
 10
0.0
 20
0.0
 30
0.0
  9
$PUCSXDIR
 10
1.0
 20
0.0
 30
0.0
  9
$PUCSYDIR
 10
0.0
 20
1.0
 30
0.0
  9
$USERI1
 70
     0
  9
$USERI2
 70
     0
  9
$USERI3
 70
     0
  9
$USERI4
 70
     0
  9
$USERI5
 70
     0
  9
$USERR1
 40
0.0
  9
$USERR2
 40
0.0
  9
$USERR3
 40
0.0
  9
$USERR4
 40
0.0
  9
$USERR5
 40
0.0
  9
$WORLDVIEW
 70
     1
  9
$SHADEDGE
 70
     3
  9
$SHADEDIF
 70
    70
  9
$TILEMODE
 70
     1
  9
$MAXACTVP
 70
    64
  9
$PLIMCHECK
 70
     0
  9
$PEXTMIN
 10
-3.1965321053293092
 20
-3.9487964581024171
 30
0.0
  9
$PEXTMAX
 10
26.8263609384664008
 20
15.4543825278071001
 30
0.0
  9
$PLIMMIN
 10
0.0
 20
0.0
  9
$PLIMMAX
 10
12.0
 20
9.0
  9
$UNITMODE
 70
     0
  9
$VISRETAIN
 70
     1
  9
$PLINEGEN
 70
     0
  9
$PSLTSCALE
 70
     1
  0
ENDSEC
  0
SECTION
  2
TABLES
  0
TABLE
  2
VPORT
 70
     1
  0
VPORT
  2
*ACTIVE
 70
     0
 10
0.0
 20
0.0
 11
1.0
 21
1.0
 12
23.9029908906133706
 22
13.4440122685536405
 13
0.0
 23
0.0
 14
0.5
 24
0.5
 15
0.5
 25
0.5
 16
0.0
 26
0.0
 36
1.0
 17
0.0
 27
0.0
 37
0.0
 40
37.0534337232201025
 41
2.3744292237442921
 42
50.0
 43
0.0
 44
0.0
 50
0.0
 51
0.0
 71
     0
 72
  1000
 73
     1
 74
     3
 75
     0
 76
     0
 77
     0
 78
     0
  0
ENDTAB
  0
TABLE
  2
LTYPE
 70
     1
  0
LTYPE
  2
CONTINUOUS
 70
     0
  3
Solid line
 72
    65
 73
     0
 40
0.0
  0
ENDTAB
  0
TABLE
  2
LAYER
 70
     4
  0
LAYER
  2
0
 70
     0
 62
     7
  6
CONTINUOUS
  0
LAYER
  2
SKETCH_GEOMETRY__ISO_
 70
     0
 62
     7
  6
CONTINUOUS
  0
LAYER
  2
VISIBLE__ISO_
 70
     0
 62
     7
  6
CONTINUOUS
  0
LAYER
  2
VISIBLE_NARROW__ISO_
 70
     0
 62
     7
  6
CONTINUOUS
  0
ENDTAB
  0
TABLE
  2
STYLE
 70
     3
  0
STYLE
  2
STANDARD
 70
     0
 40
0.0
 41
1.0
 50
0.0
 71
     0
 42
0.2
  3
txt
  4

  0
STYLE
  2
ANNOTATIVE
 70
     0
 40
0.0
 41
1.0
 50
0.0
 71
     0
 42
0.2
  3
txt
  4

  0
STYLE
  2
TEXT_3_5MM
 70
     0
 40
0.0
 41
0.899999976158142
 50
0.0
 71
     0
 42
0.2
  3
txt
  4

  0
ENDTAB
  0
TABLE
  2
VIEW
 70
     3
  0
ENDTAB
  0
TABLE
  2
UCS
 70
     0
  0
ENDTAB
  0
TABLE
  2
APPID
 70
     5
  0
APPID
  2
ACAD
 70
     0
  0
APPID
  2
ACADANNOTATIVE
 70
     0
  0
APPID
  2
ACAD_NAV_VCDISPLAY
 70
     0
  0
APPID
  2
ACAD_PSEXT
 70
     0
  0
APPID
  2
ACAD_MLEADERVER
 70
     0
  0
ENDTAB
  0
TABLE
  2
DIMSTYLE
 70
     3
  0
DIMSTYLE
  2
STANDARD
 70
     0
  3

  4

  5

  6

  7

 40
1.0
 41
0.18
 42
0.0625
 43
0.38
 44
0.18
 45
0.0
 46
0.0
 47
0.0
 48
0.0
140
0.18
141
0.09
142
0.0
143
25.3999999999999986
144
1.0
145
0.0
146
1.0
147
0.09
 71
     0
 72
     0
 73
     1
 74
     1
 75
     0
 76
     0
 77
     0
 78
     0
170
     0
171
     2
172
     0
173
     0
174
     0
175
     0
176
     0
177
     0
178
     0
  0
DIMSTYLE
  2
ANNOTATIVE
 70
     0
  3

  4

  5

  6

  7

 40
1.0
 41
0.18
 42
0.0625
 43
0.38
 44
0.18
 45
0.0
 46
0.0
 47
0.0
 48
0.0
140
0.18
141
0.09
142
0.0
143
25.3999999999999986
144
1.0
145
0.0
146
1.0
147
0.09
 71
     0
 72
     0
 73
     1
 74
     1
 75
     0
 76
     0
 77
     0
 78
     0
170
     0
171
     2
172
     0
173
     0
174
     0
175
     0
176
     0
177
     0
178
     0
  0
DIMSTYLE
  2
KS-STANDARD
 70
     0
  3

  4

  5

  6

  7

 40
6.0
 41
2.5
 42
1.0
 43
12.0
 44
2.0
 45
0.00000001
 46
10.0
 47
0.0
 48
0.0
140
2.5
141
0.09
142
0.0
143
0.03937
144
1.0
145
0.0
146
1.0
147
0.8
 71
     0
 72
     0
 73
     0
 74
     0
 75
     0
 76
     0
 77
     1
 78
     8
170
     0
171
     3
172
     1
173
     0
174
     0
175
     0
176
     7
177
     7
178
     7
  0
ENDTAB
  0
ENDSEC
  0
SECTION
  2
BLOCKS
  0
BLOCK
  8
0
  2
$MODEL_SPACE
 70
     0
 10
0.0
 20
0.0
 30
0.0
  3
$MODEL_SPACE
  1

  0
ENDBLK
  5
72
  8
0
  0
BLOCK
 67
     1
  8
0
  2
$PAPER_SPACE
 70
     0
 10
0.0
 20
0.0
 30
0.0
  3
$PAPER_SPACE
  1

  0
ENDBLK
  5
6E
 67
     1
  8
0
  0
ENDSEC
  0
SECTION
  2
ENTITIES
  0
CIRCLE
  5
97
  8
VISIBLE__ISO_
 10
26.3697394364045401
 20
22.0384362466031689
 30
0.0
 40
0.7500000000000031
  0
CIRCLE
  5
98
  8
VISIBLE__ISO_
 10
22.3697394364045401
 20
22.0384362466031689
 30
0.0
 40
0.7500000000000031
  0
CIRCLE
  5
99
  8
VISIBLE__ISO_
 10
18.3697394364045401
 20
22.0384362466031689
 30
0.0
 40
0.7500000000000031
  0
CIRCLE
  5
9A
  8
VISIBLE__ISO_
 10
30.3697394364045401
 20
22.0384362466031689
 30
0.0
 40
0.7500000000000031
  0
LINE
  5
9B
  8
VISIBLE_NARROW__ISO_
 10
8.6918596578522198
 20
21.0065755013398494
 30
0.0
 11
36.0476192149564127
 21
21.0065755013398494
 31
0.0
  0
POLYLINE
  8
VISIBLE_NARROW__ISO_
  5
14C
  66
     1
 10
0.000000
 20
0.000000
 30
0.000000
  70
     8
  0
VERTEX
  8
VISIBLE_NARROW__ISO_
  5
14D
 10
37.3812
 20
19.6728
 30
0.000000
  70
    32
  0
VERTEX
  8
VISIBLE_NARROW__ISO_
  5
14E
 10
37.3812
 20
19.6769
 30
0.000000
  70
    32
  0
VERTEX
  8
VISIBLE_NARROW__ISO_
  5
14F
 10
37.3812
 20
19.6810
 30
0.000000
  70
    32
  0
VERTEX
  8
VISIBLE_NARROW__ISO_
  5
150
 10
37.3811
 20
19.6851
 30
0.000000
  70
    32
  0
VERTEX
  8
VISIBLE_NARROW__ISO_
  5
151
 10
37.3811
 20
19.6892
 30
0.000000
  70
    32
  0
VERTEX
  8
VISIBLE_NARROW__ISO_
  5
152
 10
37.3810
 20
19.6933
 30
0.000000
  70
    32
  0
VERTEX
  8
VISIBLE_NARROW__ISO_
  5
153
 10
37.3810
 20
19.6974
 30
0.000000
  70
    32
  0
VERTEX
  8
VISIBLE_NARROW__ISO_
  5
154
 10
37.3809
 20
19.7015
 30
0.000000
  70
    32
  0
VERTEX
  8
VISIBLE_NARROW__ISO_
  5
155
 10
37.3808
 20
19.7056
 30
0.000000
  70
    32
  0
VERTEX
  8
VISIBLE_NARROW__ISO_
  5
156
 10
37.3807
 20
19.7097
 30
0.000000
  70
    32
  0
VERTEX
  8
VISIBLE_NARROW__ISO_
  5
157
 10
37.3806
 20
19.7138
 30
0.000000
  70
    32
  0
VERTEX
  8
VISIBLE_NARROW__ISO_
  5
158
 10
37.3804
 20
19.7179
 30
0.000000
  70
    32
  0
VERTEX
  8
VISIBLE_NARROW__ISO_
  5
159
 10
37.3803
 20
19.7220
 30
0.000000
  70
    32
  0
VERTEX
  8
VISIBLE_NARROW__ISO_
  5
15A
 10
37.3801
 20
19.7261
 30
0.000000
  70
    32
  0
VERTEX
  8
VISIBLE_NARROW__ISO_
  5
15B
 10
37.3800
 20
19.7302
 30
0.000000
  70
    32
  0
VERTEX
  8
VISIBLE_NARROW__ISO_
  5
15C
 10
37.3798
 20
19.7343
 30
0.000000
  70
    32
  0
VERTEX
  8
VISIBLE_NARROW__ISO_
  5
15D
 10
37.3796
 20
19.7384
 30
0.000000
  70
    32
  0
VERTEX
  8
VISIBLE_NARROW__ISO_
  5
15E
 10
37.3794
 20
19.7425
 30
0.000000
  70
    32
  0
VERTEX
  8
VISIBLE_NARROW__ISO_
  5
15F
 10
37.3792
 20
19.7466
 30
0.000000
  70
    32
  0
VERTEX
  8
VISIBLE_NARROW__ISO_
  5
160
 10
37.3789
 20
19.7507
 30
0.000000
  70
    32
  0
VERTEX
  8
VISIBLE_NARROW__ISO_
  5
161
 10
37.3787
 20
19.7548
 30
0.000000
  70
    32
  0
VERTEX
  8
VISIBLE_NARROW__ISO_
  5
162
 10
37.3784
 20
19.7589
 30
0.000000
  70
    32
  0
VERTEX
  8
VISIBLE_NARROW__ISO_
  5
163
 10
37.3782
 20
19.7630
 30
0.000000
  70
    32
  0
VERTEX
  8
VISIBLE_NARROW__ISO_
  5
164
 10
37.3779
 20
19.7671
 30
0.000000
  70
    32
  0
VERTEX
  8
VISIBLE_NARROW__ISO_
  5
165
 10
37.3776
 20
19.7711
 30
0.000000
  70
    32
  0
VERTEX
  8
VISIBLE_NARROW__ISO_
  5
166
 10
37.3773
 20
19.7752
 30
0.000000
  70
    32
  0
VERTEX
  8
VISIBLE_NARROW__ISO_
  5
167
 10
37.3770
 20
19.7793
 30
0.000000
  70
    32
  0
VERTEX
  8
VISIBLE_NARROW__ISO_
  5
168
 10
37.3766
 20
19.7834
 30
0.000000
  70
    32
  0
VERTEX
  8
VISIBLE_NARROW__ISO_
  5
169
 10
37.3763
 20
19.7875
 30
0.000000
  70
    32
  0
VERTEX
  8
VISIBLE_NARROW__ISO_
  5
16A
 10
37.3759
 20
19.7916
 30
0.000000
  70
    32
  0
VERTEX
  8
VISIBLE_NARROW__ISO_
  5
16B
 10
37.3756
 20
19.7957
 30
0.000000
  70
    32
  0
VERTEX
  8
VISIBLE_NARROW__ISO_
  5
16C
 10
37.3752
 20
19.7997
 30
0.000000
  70
    32
  0
VERTEX
  8
VISIBLE_NARROW__ISO_
  5
16D
 10
37.3748
 20
19.8038
 30
0.000000
  70
    32
  0
VERTEX
  8
VISIBLE_NARROW__ISO_
  5
16E
 10
37.3744
 20
19.8079
 30
0.000000
  70
    32
  0
VERTEX
  8
VISIBLE_NARROW__ISO_
  5
16F
 10
37.3740
 20
19.8120
 30
0.000000
  70
    32
  0
VERTEX
  8
VISIBLE_NARROW__ISO_
  5
170
 10
37.3735
 20
19.8161
 30
0.000000
  70
    32
  0
VERTEX
  8
VISIBLE_NARROW__ISO_
  5
171
 10
37.3731
 20
19.8201
 30
0.000000
  70
    32
  0
VERTEX
  8
VISIBLE_NARROW__ISO_
  5
172
 10
37.3726
 20
19.8242
 30
0.000000
  70
    32
  0
VERTEX
  8
VISIBLE_NARROW__ISO_
  5
173
 10
37.3722
 20
19.8283
 30
0.000000
  70
    32
  0
VERTEX
  8
VISIBLE_NARROW__ISO_
  5
174
 10
37.3717
 20
19.8324
 30
0.000000
  70
    32
  0
VERTEX
  8
VISIBLE_NARROW__ISO_
  5
175
 10
37.3712
 20
19.8364
 30
0.000000
  70
    32
  0
VERTEX
  8
VISIBLE_NARROW__ISO_
  5
176
 10
37.3707
 20
19.8405
 30
0.000000
  70
    32
  0
VERTEX
  8
VISIBLE_NARROW__ISO_
  5
177
 10
37.3702
 20
19.8446
 30
0.000000
  70
    32
  0
VERTEX
  8
VISIBLE_NARROW__ISO_
  5
178
 10
37.3696
 20
19.8486
 30
0.000000
  70
    32
  0
VERTEX
  8
VISIBLE_NARROW__ISO_
  5
179
 10
37.3691
 20
19.8527
 30
0.000000
  70
    32
  0
VERTEX
  8
VISIBLE_NARROW__ISO_
  5
17A
 10
37.3685
 20
19.8568
 30
0.000000
  70
    32
  0
VERTEX
  8
VISIBLE_NARROW__ISO_
  5
17B
 10
37.3679
 20
19.8608
 30
0.000000
  70
    32
  0
VERTEX
  8
VISIBLE_NARROW__ISO_
  5
17C
 10
37.3674
 20
19.8649
 30
0.000000
  70
    32
  0
VERTEX
  8
VISIBLE_NARROW__ISO_
  5
17D
 10
37.3668
 20
19.8689
 30
0.000000
  70
    32
  0
VERTEX
  8
VISIBLE_NARROW__ISO_
  5
17E
 10
37.3662
 20
19.8730
 30
0.000000
  70
    32
  0
VERTEX
  8
VISIBLE_NARROW__ISO_
  5
17F
 10
37.3655
 20
19.8770
 30
0.000000
  70
    32
  0
VERTEX
  8
VISIBLE_NARROW__ISO_
  5
180
 10
37.3649
 20
19.8811
 30
0.000000
  70
    32
  0
VERTEX
  8
VISIBLE_NARROW__ISO_
  5
181
 10
37.3643
 20
19.8851
 30
0.000000
  70
    32
  0
VERTEX
  8
VISIBLE_NARROW__ISO_
  5
182
 10
37.3636
 20
19.8892
 30
0.000000
  70
    32
  0
VERTEX
  8
VISIBLE_NARROW__ISO_
  5
183
 10
37.3629
 20
19.8932
 30
0.000000
  70
    32
  0
VERTEX
  8
VISIBLE_NARROW__ISO_
  5
184
 10
37.3623
 20
19.8973
 30
0.000000
  70
    32
  0
VERTEX
  8
VISIBLE_NARROW__ISO_
  5
185
 10
37.3616
 20
19.9013
 30
0.000000
  70
    32
  0
VERTEX
  8
VISIBLE_NARROW__ISO_
  5
186
 10
37.3609
 20
19.9053
 30
0.000000
  70
    32
  0
VERTEX
  8
VISIBLE_NARROW__ISO_
  5
187
 10
37.3601
 20
19.9094
 30
0.000000
  70
    32
  0
VERTEX
  8
VISIBLE_NARROW__ISO_
  5
188
 10
37.3594
 20
19.9134
 30
0.000000
  70
    32
  0
VERTEX
  8
VISIBLE_NARROW__ISO_
  5
189
 10
37.3587
 20
19.9175
 30
0.000000
  70
    32
  0
VERTEX
  8
VISIBLE_NARROW__ISO_
  5
18A
 10
37.3579
 20
19.9215
 30
0.000000
  70
    32
  0
VERTEX
  8
VISIBLE_NARROW__ISO_
  5
18B
 10
37.3571
 20
19.9255
 30
0.000000
  70
    32
  0
VERTEX
  8
VISIBLE_NARROW__ISO_
  5
18C
 10
37.3564
 20
19.9295
 30
0.000000
  70
    32
  0
VERTEX
  8
VISIBLE_NARROW__ISO_
  5
18D
 10
37.3556
 20
19.9336
 30
0.000000
  70
    32
  0
VERTEX
  8
VISIBLE_NARROW__ISO_
  5
18E
 10
37.3548
 20
19.9376
 30
0.000000
  70
    32
  0
VERTEX
  8
VISIBLE_NARROW__ISO_
  5
18F
 10
37.3539
 20
19.9416
 30
0.000000
  70
    32
  0
VERTEX
  8
VISIBLE_NARROW__ISO_
  5
190
 10
37.3531
 20
19.9456
 30
0.000000
  70
    32
  0
VERTEX
  8
VISIBLE_NARROW__ISO_
  5
191
 10
37.3523
 20
19.9496
 30
0.000000
  70
    32
  0
VERTEX
  8
VISIBLE_NARROW__ISO_
  5
192
 10
37.3514
 20
19.9536
 30
0.000000
  70
    32
  0
VERTEX
  8
VISIBLE_NARROW__ISO_
  5
193
 10
37.3505
 20
19.9576
 30
0.000000
  70
    32
  0
VERTEX
  8
VISIBLE_NARROW__ISO_
  5
194
 10
37.3497
 20
19.9616
 30
0.000000
  70
    32
  0
VERTEX
  8
VISIBLE_NARROW__ISO_
  5
195
 10
37.3488
 20
19.9656
 30
0.000000
  70
    32
  0
VERTEX
  8
VISIBLE_NARROW__ISO_
  5
196
 10
37.3479
 20
19.9696
 30
0.000000
  70
    32
  0
VERTEX
  8
VISIBLE_NARROW__ISO_
  5
197
 10
37.3469
 20
19.9736
 30
0.000000
  70
    32
  0
VERTEX
  8
VISIBLE_NARROW__ISO_
  5
198
 10
37.3460
 20
19.9776
 30
0.000000
  70
    32
  0
VERTEX
  8
VISIBLE_NARROW__ISO_
  5
199
 10
37.3451
 20
19.9816
 30
0.000000
  70
    32
  0
VERTEX
  8
VISIBLE_NARROW__ISO_
  5
19A
 10
37.3441
 20
19.9856
 30
0.000000
  70
    32
  0
VERTEX
  8
VISIBLE_NARROW__ISO_
  5
19B
 10
37.3432
 20
19.9896
 30
0.000000
  70
    32
  0
VERTEX
  8
VISIBLE_NARROW__ISO_
  5
19C
 10
37.3422
 20
19.9936
 30
0.000000
  70
    32
  0
VERTEX
  8
VISIBLE_NARROW__ISO_
  5
19D
 10
37.3412
 20
19.9976
 30
0.000000
  70
    32
  0
VERTEX
  8
VISIBLE_NARROW__ISO_
  5
19E
 10
37.3402
 20
20.0015
 30
0.000000
  70
    32
  0
VERTEX
  8
VISIBLE_NARROW__ISO_
  5
19F
 10
37.3392
 20
20.0055
 30
0.000000
  70
    32
  0
VERTEX
  8
VISIBLE_NARROW__ISO_
  5
1A0
 10
37.3381
 20
20.0095
 30
0.000000
  70
    32
  0
VERTEX
  8
VISIBLE_NARROW__ISO_
  5
1A1
 10
37.3371
 20
20.0134
 30
0.000000
  70
    32
  0
VERTEX
  8
VISIBLE_NARROW__ISO_
  5
1A2
 10
37.3361
 20
20.0174
 30
0.000000
  70
    32
  0
VERTEX
  8
VISIBLE_NARROW__ISO_
  5
1A3
 10
37.3350
 20
20.0214
 30
0.000000
  70
    32
  0
VERTEX
  8
VISIBLE_NARROW__ISO_
  5
1A4
 10
37.3339
 20
20.0253
 30
0.000000
  70
    32
  0
VERTEX
  8
VISIBLE_NARROW__ISO_
  5
1A5
 10
37.3328
 20
20.0293
 30
0.000000
  70
    32
  0
VERTEX
  8
VISIBLE_NARROW__ISO_
  5
1A6
 10
37.3317
 20
20.0332
 30
0.000000
  70
    32
  0
VERTEX
  8
VISIBLE_NARROW__ISO_
  5
1A7
 10
37.3306
 20
20.0372
 30
0.000000
  70
    32
  0
VERTEX
  8
VISIBLE_NARROW__ISO_
  5
1A8
 10
37.3295
 20
20.0411
 30
0.000000
  70
    32
  0
VERTEX
  8
VISIBLE_NARROW__ISO_
  5
1A9
 10
37.3284
 20
20.0451
 30
0.000000
  70
    32
  0
VERTEX
  8
VISIBLE_NARROW__ISO_
  5
1AA
 10
37.3272
 20
20.0490
 30
0.000000
  70
    32
  0
VERTEX
  8
VISIBLE_NARROW__ISO_
  5
1AB
 10
37.3260
 20
20.0529
 30
0.000000
  70
    32
  0
VERTEX
  8
VISIBLE_NARROW__ISO_
  5
1AC
 10
37.3249
 20
20.0569
 30
0.000000
  70
    32
  0
VERTEX
  8
VISIBLE_NARROW__ISO_
  5
1AD
 10
37.3237
 20
20.0608
 30
0.000000
  70
    32
  0
VERTEX
  8
VISIBLE_NARROW__ISO_
  5
1AE
 10
37.3225
 20
20.0647
 30
0.000000
  70
    32
  0
VERTEX
  8
VISIBLE_NARROW__ISO_
  5
1AF
 10
37.3213
 20
20.0686
 30
0.000000
  70
    32
  0
VERTEX
  8
VISIBLE_NARROW__ISO_
  5
1B0
 10
37.3201
 20
20.0725
 30
0.000000
  70
    32
  0
VERTEX
  8
VISIBLE_NARROW__ISO_
  5
1B1
 10
37.3188
 20
20.0764
 30
0.000000
  70
    32
  0
VERTEX
  8
VISIBLE_NARROW__ISO_
  5
1B2
 10
37.3176
 20
20.0804
 30
0.000000
  70
    32
  0
VERTEX
  8
VISIBLE_NARROW__ISO_
  5
1B3
 10
37.3163
 20
20.0843
 30
0.000000
  70
    32
  0
VERTEX
  8
VISIBLE_NARROW__ISO_
  5
1B4
 10
37.3151
 20
20.0882
 30
0.000000
  70
    32
  0
VERTEX
  8
VISIBLE_NARROW__ISO_
  5
1B5
 10
37.3138
 20
20.0920
 30
0.000000
  70
    32
  0
VERTEX
  8
VISIBLE_NARROW__ISO_
  5
1B6
 10
37.3125
 20
20.0959
 30
0.000000
  70
    32
  0
VERTEX
  8
VISIBLE_NARROW__ISO_
  5
1B7
 10
37.3112
 20
20.0998
 30
0.000000
  70
    32
  0
VERTEX
  8
VISIBLE_NARROW__ISO_
  5
1B8
 10
37.3099
 20
20.1037
 30
0.000000
  70
    32
  0
VERTEX
  8
VISIBLE_NARROW__ISO_
  5
1B9
 10
37.3085
 20
20.1076
 30
0.000000
  70
    32
  0
VERTEX
  8
VISIBLE_NARROW__ISO_
  5
1BA
 10
37.3072
 20
20.1115
 30
0.000000
  70
    32
  0
VERTEX
  8
VISIBLE_NARROW__ISO_
  5
1BB
 10
37.3058
 20
20.1153
 30
0.000000
  70
    32
  0
VERTEX
  8
VISIBLE_NARROW__ISO_
  5
1BC
 10
37.3045
 20
20.1192
 30
0.000000
  70
    32
  0
VERTEX
  8
VISIBLE_NARROW__ISO_
  5
1BD
 10
37.3031
 20
20.1231
 30
0.000000
  70
    32
  0
VERTEX
  8
VISIBLE_NARROW__ISO_
  5
1BE
 10
37.3017
 20
20.1269
 30
0.000000
  70
    32
  0
VERTEX
  8
VISIBLE_NARROW__ISO_
  5
1BF
 10
37.3003
 20
20.1308
 30
0.000000
  70
    32
  0
VERTEX
  8
VISIBLE_NARROW__ISO_
  5
1C0
 10
37.2989
 20
20.1346
 30
0.000000
  70
    32
  0
VERTEX
  8
VISIBLE_NARROW__ISO_
  5
1C1
 10
37.2975
 20
20.1385
 30
0.000000
  70
    32
  0
VERTEX
  8
VISIBLE_NARROW__ISO_
  5
1C2
 10
37.2961
 20
20.1423
 30
0.000000
  70
    32
  0
VERTEX
  8
VISIBLE_NARROW__ISO_
  5
1C3
 10
37.2946
 20
20.1462
 30
0.000000
  70
    32
  0
VERTEX
  8
VISIBLE_NARROW__ISO_
  5
1C4
 10
37.2931
 20
20.1500
 30
0.000000
  70
    32
  0
VERTEX
  8
VISIBLE_NARROW__ISO_
  5
1C5
 10
37.2917
 20
20.1538
 30
0.000000
  70
    32
  0
VERTEX
  8
VISIBLE_NARROW__ISO_
  5
1C6
 10
37.2902
 20
20.1576
 30
0.000000
  70
    32
  0
VERTEX
  8
VISIBLE_NARROW__ISO_
  5
1C7
 10
37.2887
 20
20.1615
 30
0.000000
  70
    32
  0
VERTEX
  8
VISIBLE_NARROW__ISO_
  5
1C8
 10
37.2872
 20
20.1653
 30
0.000000
  70
    32
  0
VERTEX
  8
VISIBLE_NARROW__ISO_
  5
1C9
 10
37.2857
 20
20.1691
 30
0.000000
  70
    32
  0
VERTEX
  8
VISIBLE_NARROW__ISO_
  5
1CA
 10
37.2842
 20
20.1729
 30
0.000000
  70
    32
  0
VERTEX
  8
VISIBLE_NARROW__ISO_
  5
1CB
 10
37.2826
 20
20.1767
 30
0.000000
  70
    32
  0
VERTEX
  8
VISIBLE_NARROW__ISO_
  5
1CC
 10
37.2811
 20
20.1805
 30
0.000000
  70
    32
  0
VERTEX
  8
VISIBLE_NARROW__ISO_
  5
1CD
 10
37.2795
 20
20.1843
 30
0.000000
  70
    32
  0
VERTEX
  8
VISIBLE_NARROW__ISO_
  5
1CE
 10
37.2779
 20
20.1881
 30
0.000000
  70
    32
  0
VERTEX
  8
VISIBLE_NARROW__ISO_
  5
1CF
 10
37.2763
 20
20.1918
 30
0.000000
  70
    32
  0
VERTEX
  8
VISIBLE_NARROW__ISO_
  5
1D0
 10
37.2747
 20
20.1956
 30
0.000000
  70
    32
  0
VERTEX
  8
VISIBLE_NARROW__ISO_
  5
1D1
 10
37.2731
 20
20.1994
 30
0.000000
  70
    32
  0
VERTEX
  8
VISIBLE_NARROW__ISO_
  5
1D2
 10
37.2715
 20
20.2032
 30
0.000000
  70
    32
  0
VERTEX
  8
VISIBLE_NARROW__ISO_
  5
1D3
 10
37.2699
 20
20.2069
 30
0.000000
  70
    32
  0
VERTEX
  8
VISIBLE_NARROW__ISO_
  5
1D4
 10
37.2682
 20
20.2107
 30
0.000000
  70
    32
  0
VERTEX
  8
VISIBLE_NARROW__ISO_
  5
1D5
 10
37.2666
 20
20.2144
 30
0.000000
  70
    32
  0
VERTEX
  8
VISIBLE_NARROW__ISO_
  5
1D6
 10
37.2649
 20
20.2182
 30
0.000000
  70
    32
  0
VERTEX
  8
VISIBLE_NARROW__ISO_
  5
1D7
 10
37.2632
 20
20.2219
 30
0.000000
  70
    32
  0
VERTEX
  8
VISIBLE_NARROW__ISO_
  5
1D8
 10
37.2615
 20
20.2256
 30
0.000000
  70
    32
  0
VERTEX
  8
VISIBLE_NARROW__ISO_
  5
1D9
 10
37.2598
 20
20.2294
 30
0.000000
  70
    32
  0
VERTEX
  8
VISIBLE_NARROW__ISO_
  5
1DA
 10
37.2581
 20
20.2331
 30
0.000000
  70
    32
  0
VERTEX
  8
VISIBLE_NARROW__ISO_
  5
1DB
 10
37.2564
 20
20.2368
 30
0.000000
  70
    32
  0
VERTEX
  8
VISIBLE_NARROW__ISO_
  5
1DC
 10
37.2546
 20
20.2405
 30
0.000000
  70
    32
  0
VERTEX
  8
VISIBLE_NARROW__ISO_
  5
1DD
 10
37.2529
 20
20.2442
 30
0.000000
  70
    32
  0
VERTEX
  8
VISIBLE_NARROW__ISO_
  5
1DE
 10
37.2511
 20
20.2479
 30
0.000000
  70
    32
  0
VERTEX
  8
VISIBLE_NARROW__ISO_
  5
1DF
 10
37.2494
 20
20.2516
 30
0.000000
  70
    32
  0
VERTEX
  8
VISIBLE_NARROW__ISO_
  5
1E0
 10
37.2476
 20
20.2553
 30
0.000000
  70
    32
  0
VERTEX
  8
VISIBLE_NARROW__ISO_
  5
1E1
 10
37.2458
 20
20.2590
 30
0.000000
  70
    32
  0
VERTEX
  8
VISIBLE_NARROW__ISO_
  5
1E2
 10
37.2440
 20
20.2627
 30
0.000000
  70
    32
  0
VERTEX
  8
VISIBLE_NARROW__ISO_
  5
1E3
 10
37.2422
 20
20.2664
 30
0.000000
  70
    32
  0
VERTEX
  8
VISIBLE_NARROW__ISO_
  5
1E4
 10
37.2403
 20
20.2701
 30
0.000000
  70
    32
  0
VERTEX
  8
VISIBLE_NARROW__ISO_
  5
1E5
 10
37.2385
 20
20.2737
 30
0.000000
  70
    32
  0
VERTEX
  8
VISIBLE_NARROW__ISO_
  5
1E6
 10
37.2366
 20
20.2774
 30
0.000000
  70
    32
  0
VERTEX
  8
VISIBLE_NARROW__ISO_
  5
1E7
 10
37.2348
 20
20.2810
 30
0.000000
  70
    32
  0
VERTEX
  8
VISIBLE_NARROW__ISO_
  5
1E8
 10
37.2329
 20
20.2847
 30
0.000000
  70
    32
  0
VERTEX
  8
VISIBLE_NARROW__ISO_
  5
1E9
 10
37.2310
 20
20.2883
 30
0.000000
  70
    32
  0
VERTEX
  8
VISIBLE_NARROW__ISO_
  5
1EA
 10
37.2291
 20
20.2920
 30
0.000000
  70
    32
  0
VERTEX
  8
VISIBLE_NARROW__ISO_
  5
1EB
 10
37.2272
 20
20.2956
 30
0.000000
  70
    32
  0
VERTEX
  8
VISIBLE_NARROW__ISO_
  5
1EC
 10
37.2253
 20
20.2992
 30
0.000000
  70
    32
  0
VERTEX
  8
VISIBLE_NARROW__ISO_
  5
1ED
 10
37.2234
 20
20.3028
 30
0.000000
  70
    32
  0
VERTEX
  8
VISIBLE_NARROW__ISO_
  5
1EE
 10
37.2214
 20
20.3064
 30
0.000000
  70
    32
  0
VERTEX
  8
VISIBLE_NARROW__ISO_
  5
1EF
 10
37.2195
 20
20.3100
 30
0.000000
  70
    32
  0
VERTEX
  8
VISIBLE_NARROW__ISO_
  5
1F0
 10
37.2175
 20
20.3136
 30
0.000000
  70
    32
  0
VERTEX
  8
VISIBLE_NARROW__ISO_
  5
1F1
 10
37.2155
 20
20.3172
 30
0.000000
  70
    32
  0
VERTEX
  8
VISIBLE_NARROW__ISO_
  5
1F2
 10
37.2135
 20
20.3208
 30
0.000000
  70
    32
  0
VERTEX
  8
VISIBLE_NARROW__ISO_
  5
1F3
 10
37.2115
 20
20.3244
 30
0.000000
  70
    32
  0
VERTEX
  8
VISIBLE_NARROW__ISO_
  5
1F4
 10
37.2095
 20
20.3280
 30
0.000000
  70
    32
  0
VERTEX
  8
VISIBLE_NARROW__ISO_
  5
1F5
 10
37.2075
 20
20.3316
 30
0.000000
  70
    32
  0
VERTEX
  8
VISIBLE_NARROW__ISO_
  5
1F6
 10
37.2055
 20
20.3351
 30
0.000000
  70
    32
  0
VERTEX
  8
VISIBLE_NARROW__ISO_
  5
1F7
 10
37.2035
 20
20.3387
 30
0.000000
  70
    32
  0
VERTEX
  8
VISIBLE_NARROW__ISO_
  5
1F8
 10
37.2014
 20
20.3422
 30
0.000000
  70
    32
  0
VERTEX
  8
VISIBLE_NARROW__ISO_
  5
1F9
 10
37.1993
 20
20.3458
 30
0.000000
  70
    32
  0
VERTEX
  8
VISIBLE_NARROW__ISO_
  5
1FA
 10
37.1973
 20
20.3493
 30
0.000000
  70
    32
  0
VERTEX
  8
VISIBLE_NARROW__ISO_
  5
1FB
 10
37.1952
 20
20.3528
 30
0.000000
  70
    32
  0
VERTEX
  8
VISIBLE_NARROW__ISO_
  5
1FC
 10
37.1931
 20
20.3564
 30
0.000000
  70
    32
  0
VERTEX
  8
VISIBLE_NARROW__ISO_
  5
1FD
 10
37.1910
 20
20.3599
 30
0.000000
  70
    32
  0
VERTEX
  8
VISIBLE_NARROW__ISO_
  5
1FE
 10
37.1889
 20
20.3634
 30
0.000000
  70
    32
  0
VERTEX
  8
VISIBLE_NARROW__ISO_
  5
1FF
 10
37.1867
 20
20.3669
 30
0.000000
  70
    32
  0
VERTEX
  8
VISIBLE_NARROW__ISO_
  5
200
 10
37.1846
 20
20.3704
 30
0.000000
  70
    32
  0
VERTEX
  8
VISIBLE_NARROW__ISO_
  5
201
 10
37.1825
 20
20.3739
 30
0.000000
  70
    32
  0
VERTEX
  8
VISIBLE_NARROW__ISO_
  5
202
 10
37.1803
 20
20.3774
 30
0.000000
  70
    32
  0
VERTEX
  8
VISIBLE_NARROW__ISO_
  5
203
 10
37.1781
 20
20.3809
 30
0.000000
  70
    32
  0
VERTEX
  8
VISIBLE_NARROW__ISO_
  5
204
 10
37.1759
 20
20.3843
 30
0.000000
  70
    32
  0
VERTEX
  8
VISIBLE_NARROW__ISO_
  5
205
 10
37.1737
 20
20.3878
 30
0.000000
  70
    32
  0
VERTEX
  8
VISIBLE_NARROW__ISO_
  5
206
 10
37.1715
 20
20.3913
 30
0.000000
  70
    32
  0
VERTEX
  8
VISIBLE_NARROW__ISO_
  5
207
 10
37.1693
 20
20.3947
 30
0.000000
  70
    32
  0
VERTEX
  8
VISIBLE_NARROW__ISO_
  5
208
 10
37.1671
 20
20.3982
 30
0.000000
  70
    32
  0
VERTEX
  8
VISIBLE_NARROW__ISO_
  5
209
 10
37.1649
 20
20.4016
 30
0.000000
  70
    32
  0
VERTEX
  8
VISIBLE_NARROW__ISO_
  5
20A
 10
37.1626
 20
20.4050
 30
0.000000
  70
    32
  0
VERTEX
  8
VISIBLE_NARROW__ISO_
  5
20B
 10
37.1604
 20
20.4085
 30
0.000000
  70
    32
  0
VERTEX
  8
VISIBLE_NARROW__ISO_
  5
20C
 10
37.1581
 20
20.4119
 30
0.000000
  70
    32
  0
VERTEX
  8
VISIBLE_NARROW__ISO_
  5
20D
 10
37.1558
 20
20.4153
 30
0.000000
  70
    32
  0
VERTEX
  8
VISIBLE_NARROW__ISO_
  5
20E
 10
37.1535
 20
20.4187
 30
0.000000
  70
    32
  0
VERTEX
  8
VISIBLE_NARROW__ISO_
  5
20F
 10
37.1513
 20
20.4221
 30
0.000000
  70
    32
  0
VERTEX
  8
VISIBLE_NARROW__ISO_
  5
210
 10
37.1489
 20
20.4255
 30
0.000000
  70
    32
  0
VERTEX
  8
VISIBLE_NARROW__ISO_
  5
211
 10
37.1466
 20
20.4289
 30
0.000000
  70
    32
  0
VERTEX
  8
VISIBLE_NARROW__ISO_
  5
212
 10
37.1443
 20
20.4322
 30
0.000000
  70
    32
  0
VERTEX
  8
VISIBLE_NARROW__ISO_
  5
213
 10
37.1420
 20
20.4356
 30
0.000000
  70
    32
  0
VERTEX
  8
VISIBLE_NARROW__ISO_
  5
214
 10
37.1396
 20
20.4390
 30
0.000000
  70
    32
  0
VERTEX
  8
VISIBLE_NARROW__ISO_
  5
215
 10
37.1373
 20
20.4423
 30
0.000000
  70
    32
  0
VERTEX
  8
VISIBLE_NARROW__ISO_
  5
216
 10
37.1349
 20
20.4457
 30
0.000000
  70
    32
  0
VERTEX
  8
VISIBLE_NARROW__ISO_
  5
217
 10
37.1325
 20
20.4490
 30
0.000000
  70
    32
  0
VERTEX
  8
VISIBLE_NARROW__ISO_
  5
218
 10
37.1301
 20
20.4523
 30
0.000000
  70
    32
  0
VERTEX
  8
VISIBLE_NARROW__ISO_
  5
219
 10
37.1277
 20
20.4557
 30
0.000000
  70
    32
  0
VERTEX
  8
VISIBLE_NARROW__ISO_
  5
21A
 10
37.1253
 20
20.4590
 30
0.000000
  70
    32
  0
VERTEX
  8
VISIBLE_NARROW__ISO_
  5
21B
 10
37.1229
 20
20.4623
 30
0.000000
  70
    32
  0
VERTEX
  8
VISIBLE_NARROW__ISO_
  5
21C
 10
37.1205
 20
20.4656
 30
0.000000
  70
    32
  0
VERTEX
  8
VISIBLE_NARROW__ISO_
  5
21D
 10
37.1180
 20
20.4689
 30
0.000000
  70
    32
  0
VERTEX
  8
VISIBLE_NARROW__ISO_
  5
21E
 10
37.1156
 20
20.4722
 30
0.000000
  70
    32
  0
VERTEX
  8
VISIBLE_NARROW__ISO_
  5
21F
 10
37.1131
 20
20.4755
 30
0.000000
  70
    32
  0
VERTEX
  8
VISIBLE_NARROW__ISO_
  5
220
 10
37.1106
 20
20.4787
 30
0.000000
  70
    32
  0
VERTEX
  8
VISIBLE_NARROW__ISO_
  5
221
 10
37.1081
 20
20.4820
 30
0.000000
  70
    32
  0
VERTEX
  8
VISIBLE_NARROW__ISO_
  5
222
 10
37.1057
 20
20.4853
 30
0.000000
  70
    32
  0
VERTEX
  8
VISIBLE_NARROW__ISO_
  5
223
 10
37.1032
 20
20.4885
 30
0.000000
  70
    32
  0
VERTEX
  8
VISIBLE_NARROW__ISO_
  5
224
 10
37.1006
 20
20.4918
 30
0.000000
  70
    32
  0
VERTEX
  8
VISIBLE_NARROW__ISO_
  5
225
 10
37.0981
 20
20.4950
 30
0.000000
  70
    32
  0
VERTEX
  8
VISIBLE_NARROW__ISO_
  5
226
 10
37.0956
 20
20.4982
 30
0.000000
  70
    32
  0
VERTEX
  8
VISIBLE_NARROW__ISO_
  5
227
 10
37.0931
 20
20.5014
 30
0.000000
  70
    32
  0
VERTEX
  8
VISIBLE_NARROW__ISO_
  5
228
 10
37.0905
 20
20.5046
 30
0.000000
  70
    32
  0
VERTEX
  8
VISIBLE_NARROW__ISO_
  5
229
 10
37.0879
 20
20.5078
 30
0.000000
  70
    32
  0
VERTEX
  8
VISIBLE_NARROW__ISO_
  5
22A
 10
37.0854
 20
20.5110
 30
0.000000
  70
    32
  0
VERTEX
  8
VISIBLE_NARROW__ISO_
  5
22B
 10
37.0828
 20
20.5142
 30
0.000000
  70
    32
  0
VERTEX
  8
VISIBLE_NARROW__ISO_
  5
22C
 10
37.0802
 20
20.5174
 30
0.000000
  70
    32
  0
VERTEX
  8
VISIBLE_NARROW__ISO_
  5
22D
 10
37.0776
 20
20.5206
 30
0.000000
  70
    32
  0
VERTEX
  8
VISIBLE_NARROW__ISO_
  5
22E
 10
37.0750
 20
20.5237
 30
0.000000
  70
    32
  0
VERTEX
  8
VISIBLE_NARROW__ISO_
  5
22F
 10
37.0724
 20
20.5269
 30
0.000000
  70
    32
  0
VERTEX
  8
VISIBLE_NARROW__ISO_
  5
230
 10
37.0697
 20
20.5300
 30
0.000000
  70
    32
  0
VERTEX
  8
VISIBLE_NARROW__ISO_
  5
231
 10
37.0671
 20
20.5332
 30
0.000000
  70
    32
  0
VERTEX
  8
VISIBLE_NARROW__ISO_
  5
232
 10
37.0645
 20
20.5363
 30
0.000000
  70
    32
  0
VERTEX
  8
VISIBLE_NARROW__ISO_
  5
233
 10
37.0618
 20
20.5394
 30
0.000000
  70
    32
  0
VERTEX
  8
VISIBLE_NARROW__ISO_
  5
234
 10
37.0591
 20
20.5426
 30
0.000000
  70
    32
  0
VERTEX
  8
VISIBLE_NARROW__ISO_
  5
235
 10
37.0564
 20
20.5457
 30
0.000000
  70
    32
  0
VERTEX
  8
VISIBLE_NARROW__ISO_
  5
236
 10
37.0538
 20
20.5488
 30
0.000000
  70
    32
  0
VERTEX
  8
VISIBLE_NARROW__ISO_
  5
237
 10
37.0511
 20
20.5518
 30
0.000000
  70
    32
  0
VERTEX
  8
VISIBLE_NARROW__ISO_
  5
238
 10
37.0484
 20
20.5549
 30
0.000000
  70
    32
  0
VERTEX
  8
VISIBLE_NARROW__ISO_
  5
239
 10
37.0456
 20
20.5580
 30
0.000000
  70
    32
  0
VERTEX
  8
VISIBLE_NARROW__ISO_
  5
23A
 10
37.0429
 20
20.5611
 30
0.000000
  70
    32
  0
VERTEX
  8
VISIBLE_NARROW__ISO_
  5
23B
 10
37.0402
 20
20.5641
 30
0.000000
  70
    32
  0
VERTEX
  8
VISIBLE_NARROW__ISO_
  5
23C
 10
37.0374
 20
20.5672
 30
0.000000
  70
    32
  0
VERTEX
  8
VISIBLE_NARROW__ISO_
  5
23D
 10
37.0347
 20
20.5702
 30
0.000000
  70
    32
  0
VERTEX
  8
VISIBLE_NARROW__ISO_
  5
23E
 10
37.0319
 20
20.5732
 30
0.000000
  70
    32
  0
VERTEX
  8
VISIBLE_NARROW__ISO_
  5
23F
 10
37.0291
 20
20.5763
 30
0.000000
  70
    32
  0
VERTEX
  8
VISIBLE_NARROW__ISO_
  5
240
 10
37.0264
 20
20.5793
 30
0.000000
  70
    32
  0
VERTEX
  8
VISIBLE_NARROW__ISO_
  5
241
 10
37.0236
 20
20.5823
 30
0.000000
  70
    32
  0
VERTEX
  8
VISIBLE_NARROW__ISO_
  5
242
 10
37.0208
 20
20.5853
 30
0.000000
  70
    32
  0
VERTEX
  8
VISIBLE_NARROW__ISO_
  5
243
 10
37.0180
 20
20.5883
 30
0.000000
  70
    32
  0
VERTEX
  8
VISIBLE_NARROW__ISO_
  5
244
 10
37.0151
 20
20.5912
 30
0.000000
  70
    32
  0
VERTEX
  8
VISIBLE_NARROW__ISO_
  5
245
 10
37.0123
 20
20.5942
 30
0.000000
  70
    32
  0
VERTEX
  8
VISIBLE_NARROW__ISO_
  5
246
 10
37.0095
 20
20.5972
 30
0.000000
  70
    32
  0
VERTEX
  8
VISIBLE_NARROW__ISO_
  5
247
 10
37.0066
 20
20.6001
 30
0.000000
  70
    32
  0
VERTEX
  8
VISIBLE_NARROW__ISO_
  5
248
 10
37.0038
 20
20.6031
 30
0.000000
  70
    32
  0
VERTEX
  8
VISIBLE_NARROW__ISO_
  5
249
 10
37.0009
 20
20.6060
 30
0.000000
  70
    32
  0
VERTEX
  8
VISIBLE_NARROW__ISO_
  5
24A
 10
36.9980
 20
20.6089
 30
0.000000
  70
    32
  0
VERTEX
  8
VISIBLE_NARROW__ISO_
  5
24B
 10
36.9952
 20
20.6118
 30
0.000000
  70
    32
  0
VERTEX
  8
VISIBLE_NARROW__ISO_
  5
24C
 10
36.9923
 20
20.6148
 30
0.000000
  70
    32
  0
VERTEX
  8
VISIBLE_NARROW__ISO_
  5
24D
 10
36.9894
 20
20.6177
 30
0.000000
  70
    32
  0
VERTEX
  8
VISIBLE_NARROW__ISO_
  5
24E
 10
36.9865
 20
20.6205
 30
0.000000
  70
    32
  0
VERTEX
  8
VISIBLE_NARROW__ISO_
  5
24F
 10
36.9835
 20
20.6234
 30
0.000000
  70
    32
  0
VERTEX
  8
VISIBLE_NARROW__ISO_
  5
250
 10
36.9806
 20
20.6263
 30
0.000000
  70
    32
  0
VERTEX
  8
VISIBLE_NARROW__ISO_
  5
251
 10
36.9777
 20
20.6292
 30
0.000000
  70
    32
  0
VERTEX
  8
VISIBLE_NARROW__ISO_
  5
252
 10
36.9747
 20
20.6320
 30
0.000000
  70
    32
  0
VERTEX
  8
VISIBLE_NARROW__ISO_
  5
253
 10
36.9718
 20
20.6349
 30
0.000000
  70
    32
  0
VERTEX
  8
VISIBLE_NARROW__ISO_
  5
254
 10
36.9688
 20
20.6377
 30
0.000000
  70
    32
  0
VERTEX
  8
VISIBLE_NARROW__ISO_
  5
255
 10
36.9658
 20
20.6405
 30
0.000000
  70
    32
  0
VERTEX
  8
VISIBLE_NARROW__ISO_
  5
256
 10
36.9629
 20
20.6433
 30
0.000000
  70
    32
  0
VERTEX
  8
VISIBLE_NARROW__ISO_
  5
257
 10
36.9599
 20
20.6461
 30
0.000000
  70
    32
  0
VERTEX
  8
VISIBLE_NARROW__ISO_
  5
258
 10
36.9569
 20
20.6489
 30
0.000000
  70
    32
  0
VERTEX
  8
VISIBLE_NARROW__ISO_
  5
259
 10
36.9539
 20
20.6517
 30
0.000000
  70
    32
  0
VERTEX
  8
VISIBLE_NARROW__ISO_
  5
25A
 10
36.9509
 20
20.6545
 30
0.000000
  70
    32
  0
VERTEX
  8
VISIBLE_NARROW__ISO_
  5
25B
 10
36.9478
 20
20.6573
 30
0.000000
  70
    32
  0
VERTEX
  8
VISIBLE_NARROW__ISO_
  5
25C
 10
36.9448
 20
20.6601
 30
0.000000
  70
    32
  0
VERTEX
  8
VISIBLE_NARROW__ISO_
  5
25D
 10
36.9418
 20
20.6628
 30
0.000000
  70
    32
  0
VERTEX
  8
VISIBLE_NARROW__ISO_
  5
25E
 10
36.9387
 20
20.6656
 30
0.000000
  70
    32
  0
VERTEX
  8
VISIBLE_NARROW__ISO_
  5
25F
 10
36.9357
 20
20.6683
 30
0.000000
  70
    32
  0
VERTEX
  8
VISIBLE_NARROW__ISO_
  5
260
 10
36.9326
 20
20.6710
 30
0.000000
  70
    32
  0
VERTEX
  8
VISIBLE_NARROW__ISO_
  5
261
 10
36.9295
 20
20.6737
 30
0.000000
  70
    32
  0
VERTEX
  8
VISIBLE_NARROW__ISO_
  5
262
 10
36.9264
 20
20.6764
 30
0.000000
  70
    32
  0
VERTEX
  8
VISIBLE_NARROW__ISO_
  5
263
 10
36.9234
 20
20.6791
 30
0.000000
  70
    32
  0
VERTEX
  8
VISIBLE_NARROW__ISO_
  5
264
 10
36.9203
 20
20.6818
 30
0.000000
  70
    32
  0
VERTEX
  8
VISIBLE_NARROW__ISO_
  5
265
 10
36.9171
 20
20.6845
 30
0.000000
  70
    32
  0
VERTEX
  8
VISIBLE_NARROW__ISO_
  5
266
 10
36.9140
 20
20.6872
 30
0.000000
  70
    32
  0
VERTEX
  8
VISIBLE_NARROW__ISO_
  5
267
 10
36.9109
 20
20.6898
 30
0.000000
  70
    32
  0
VERTEX
  8
VISIBLE_NARROW__ISO_
  5
268
 10
36.9078
 20
20.6925
 30
0.000000
  70
    32
  0
VERTEX
  8
VISIBLE_NARROW__ISO_
  5
269
 10
36.9046
 20
20.6951
 30
0.000000
  70
    32
  0
VERTEX
  8
VISIBLE_NARROW__ISO_
  5
26A
 10
36.9015
 20
20.6977
 30
0.000000
  70
    32
  0
VERTEX
  8
VISIBLE_NARROW__ISO_
  5
26B
 10
36.8983
 20
20.7004
 30
0.000000
  70
    32
  0
VERTEX
  8
VISIBLE_NARROW__ISO_
  5
26C
 10
36.8952
 20
20.7030
 30
0.000000
  70
    32
  0
VERTEX
  8
VISIBLE_NARROW__ISO_
  5
26D
 10
36.8920
 20
20.7056
 30
0.000000
  70
    32
  0
VERTEX
  8
VISIBLE_NARROW__ISO_
  5
26E
 10
36.8888
 20
20.7082
 30
0.000000
  70
    32
  0
VERTEX
  8
VISIBLE_NARROW__ISO_
  5
26F
 10
36.8856
 20
20.7107
 30
0.000000
  70
    32
  0
VERTEX
  8
VISIBLE_NARROW__ISO_
  5
270
 10
36.8824
 20
20.7133
 30
0.000000
  70
    32
  0
VERTEX
  8
VISIBLE_NARROW__ISO_
  5
271
 10
36.8792
 20
20.7159
 30
0.000000
  70
    32
  0
VERTEX
  8
VISIBLE_NARROW__ISO_
  5
272
 10
36.8760
 20
20.7184
 30
0.000000
  70
    32
  0
VERTEX
  8
VISIBLE_NARROW__ISO_
  5
273
 10
36.8728
 20
20.7210
 30
0.000000
  70
    32
  0
VERTEX
  8
VISIBLE_NARROW__ISO_
  5
274
 10
36.8696
 20
20.7235
 30
0.000000
  70
    32
  0
VERTEX
  8
VISIBLE_NARROW__ISO_
  5
275
 10
36.8664
 20
20.7260
 30
0.000000
  70
    32
  0
VERTEX
  8
VISIBLE_NARROW__ISO_
  5
276
 10
36.8631
 20
20.7285
 30
0.000000
  70
    32
  0
VERTEX
  8
VISIBLE_NARROW__ISO_
  5
277
 10
36.8599
 20
20.7310
 30
0.000000
  70
    32
  0
VERTEX
  8
VISIBLE_NARROW__ISO_
  5
278
 10
36.8566
 20
20.7335
 30
0.000000
  70
    32
  0
VERTEX
  8
VISIBLE_NARROW__ISO_
  5
279
 10
36.8533
 20
20.7360
 30
0.000000
  70
    32
  0
VERTEX
  8
VISIBLE_NARROW__ISO_
  5
27A
 10
36.8501
 20
20.7385
 30
0.000000
  70
    32
  0
VERTEX
  8
VISIBLE_NARROW__ISO_
  5
27B
 10
36.8468
 20
20.7410
 30
0.000000
  70
    32
  0
VERTEX
  8
VISIBLE_NARROW__ISO_
  5
27C
 10
36.8435
 20
20.7434
 30
0.000000
  70
    32
  0
VERTEX
  8
VISIBLE_NARROW__ISO_
  5
27D
 10
36.8402
 20
20.7458
 30
0.000000
  70
    32
  0
VERTEX
  8
VISIBLE_NARROW__ISO_
  5
27E
 10
36.8369
 20
20.7483
 30
0.000000
  70
    32
  0
VERTEX
  8
VISIBLE_NARROW__ISO_
  5
27F
 10
36.8336
 20
20.7507
 30
0.000000
  70
    32
  0
VERTEX
  8
VISIBLE_NARROW__ISO_
  5
280
 10
36.8303
 20
20.7531
 30
0.000000
  70
    32
  0
VERTEX
  8
VISIBLE_NARROW__ISO_
  5
281
 10
36.8270
 20
20.7555
 30
0.000000
  70
    32
  0
VERTEX
  8
VISIBLE_NARROW__ISO_
  5
282
 10
36.8236
 20
20.7579
 30
0.000000
  70
    32
  0
VERTEX
  8
VISIBLE_NARROW__ISO_
  5
283
 10
36.8203
 20
20.7603
 30
0.000000
  70
    32
  0
VERTEX
  8
VISIBLE_NARROW__ISO_
  5
284
 10
36.8169
 20
20.7627
 30
0.000000
  70
    32
  0
VERTEX
  8
VISIBLE_NARROW__ISO_
  5
285
 10
36.8136
 20
20.7650
 30
0.000000
  70
    32
  0
VERTEX
  8
VISIBLE_NARROW__ISO_
  5
286
 10
36.8102
 20
20.7674
 30
0.000000
  70
    32
  0
VERTEX
  8
VISIBLE_NARROW__ISO_
  5
287
 10
36.8069
 20
20.7697
 30
0.000000
  70
    32
  0
VERTEX
  8
VISIBLE_NARROW__ISO_
  5
288
 10
36.8035
 20
20.7720
 30
0.000000
  70
    32
  0
VERTEX
  8
VISIBLE_NARROW__ISO_
  5
289
 10
36.8001
 20
20.7743
 30
0.000000
  70
    32
  0
VERTEX
  8
VISIBLE_NARROW__ISO_
  5
28A
 10
36.7967
 20
20.7767
 30
0.000000
  70
    32
  0
VERTEX
  8
VISIBLE_NARROW__ISO_
  5
28B
 10
36.7933
 20
20.7790
 30
0.000000
  70
    32
  0
VERTEX
  8
VISIBLE_NARROW__ISO_
  5
28C
 10
36.7899
 20
20.7812
 30
0.000000
  70
    32
  0
VERTEX
  8
VISIBLE_NARROW__ISO_
  5
28D
 10
36.7865
 20
20.7835
 30
0.000000
  70
    32
  0
VERTEX
  8
VISIBLE_NARROW__ISO_
  5
28E
 10
36.7831
 20
20.7858
 30
0.000000
  70
    32
  0
VERTEX
  8
VISIBLE_NARROW__ISO_
  5
28F
 10
36.7797
 20
20.7880
 30
0.000000
  70
    32
  0
VERTEX
  8
VISIBLE_NARROW__ISO_
  5
290
 10
36.7762
 20
20.7903
 30
0.000000
  70
    32
  0
VERTEX
  8
VISIBLE_NARROW__ISO_
  5
291
 10
36.7728
 20
20.7925
 30
0.000000
  70
    32
  0
VERTEX
  8
VISIBLE_NARROW__ISO_
  5
292
 10
36.7693
 20
20.7947
 30
0.000000
  70
    32
  0
VERTEX
  8
VISIBLE_NARROW__ISO_
  5
293
 10
36.7659
 20
20.7970
 30
0.000000
  70
    32
  0
VERTEX
  8
VISIBLE_NARROW__ISO_
  5
294
 10
36.7624
 20
20.7992
 30
0.000000
  70
    32
  0
VERTEX
  8
VISIBLE_NARROW__ISO_
  5
295
 10
36.7590
 20
20.8013
 30
0.000000
  70
    32
  0
VERTEX
  8
VISIBLE_NARROW__ISO_
  5
296
 10
36.7555
 20
20.8035
 30
0.000000
  70
    32
  0
VERTEX
  8
VISIBLE_NARROW__ISO_
  5
297
 10
36.7520
 20
20.8057
 30
0.000000
  70
    32
  0
VERTEX
  8
VISIBLE_NARROW__ISO_
  5
298
 10
36.7485
 20
20.8079
 30
0.000000
  70
    32
  0
VERTEX
  8
VISIBLE_NARROW__ISO_
  5
299
 10
36.7450
 20
20.8100
 30
0.000000
  70
    32
  0
VERTEX
  8
VISIBLE_NARROW__ISO_
  5
29A
 10
36.7415
 20
20.8121
 30
0.000000
  70
    32
  0
VERTEX
  8
VISIBLE_NARROW__ISO_
  5
29B
 10
36.7380
 20
20.8143
 30
0.000000
  70
    32
  0
VERTEX
  8
VISIBLE_NARROW__ISO_
  5
29C
 10
36.7345
 20
20.8164
 30
0.000000
  70
    32
  0
VERTEX
  8
VISIBLE_NARROW__ISO_
  5
29D
 10
36.7310
 20
20.8185
 30
0.000000
  70
    32
  0
VERTEX
  8
VISIBLE_NARROW__ISO_
  5
29E
 10
36.7275
 20
20.8206
 30
0.000000
  70
    32
  0
VERTEX
  8
VISIBLE_NARROW__ISO_
  5
29F
 10
36.7239
 20
20.8227
 30
0.000000
  70
    32
  0
VERTEX
  8
VISIBLE_NARROW__ISO_
  5
2A0
 10
36.7204
 20
20.8247
 30
0.000000
  70
    32
  0
VERTEX
  8
VISIBLE_NARROW__ISO_
  5
2A1
 10
36.7168
 20
20.8268
 30
0.000000
  70
    32
  0
VERTEX
  8
VISIBLE_NARROW__ISO_
  5
2A2
 10
36.7133
 20
20.8288
 30
0.000000
  70
    32
  0
VERTEX
  8
VISIBLE_NARROW__ISO_
  5
2A3
 10
36.7097
 20
20.8309
 30
0.000000
  70
    32
  0
VERTEX
  8
VISIBLE_NARROW__ISO_
  5
2A4
 10
36.7062
 20
20.8329
 30
0.000000
  70
    32
  0
VERTEX
  8
VISIBLE_NARROW__ISO_
  5
2A5
 10
36.7026
 20
20.8349
 30
0.000000
  70
    32
  0
VERTEX
  8
VISIBLE_NARROW__ISO_
  5
2A6
 10
36.6990
 20
20.8369
 30
0.000000
  70
    32
  0
VERTEX
  8
VISIBLE_NARROW__ISO_
  5
2A7
 10
36.6954
 20
20.8389
 30
0.000000
  70
    32
  0
VERTEX
  8
VISIBLE_NARROW__ISO_
  5
2A8
 10
36.6918
 20
20.8409
 30
0.000000
  70
    32
  0
VERTEX
  8
VISIBLE_NARROW__ISO_
  5
2A9
 10
36.6883
 20
20.8429
 30
0.000000
  70
    32
  0
VERTEX
  8
VISIBLE_NARROW__ISO_
  5
2AA
 10
36.6847
 20
20.8449
 30
0.000000
  70
    32
  0
VERTEX
  8
VISIBLE_NARROW__ISO_
  5
2AB
 10
36.6810
 20
20.8468
 30
0.000000
  70
    32
  0
VERTEX
  8
VISIBLE_NARROW__ISO_
  5
2AC
 10
36.6774
 20
20.8487
 30
0.000000
  70
    32
  0
VERTEX
  8
VISIBLE_NARROW__ISO_
  5
2AD
 10
36.6738
 20
20.8507
 30
0.000000
  70
    32
  0
VERTEX
  8
VISIBLE_NARROW__ISO_
  5
2AE
 10
36.6702
 20
20.8526
 30
0.000000
  70
    32
  0
VERTEX
  8
VISIBLE_NARROW__ISO_
  5
2AF
 10
36.6666
 20
20.8545
 30
0.000000
  70
    32
  0
VERTEX
  8
VISIBLE_NARROW__ISO_
  5
2B0
 10
36.6629
 20
20.8564
 30
0.000000
  70
    32
  0
VERTEX
  8
VISIBLE_NARROW__ISO_
  5
2B1
 10
36.6593
 20
20.8583
 30
0.000000
  70
    32
  0
VERTEX
  8
VISIBLE_NARROW__ISO_
  5
2B2
 10
36.6556
 20
20.8602
 30
0.000000
  70
    32
  0
VERTEX
  8
VISIBLE_NARROW__ISO_
  5
2B3
 10
36.6520
 20
20.8620
 30
0.000000
  70
    32
  0
VERTEX
  8
VISIBLE_NARROW__ISO_
  5
2B4
 10
36.6483
 20
20.8639
 30
0.000000
  70
    32
  0
VERTEX
  8
VISIBLE_NARROW__ISO_
  5
2B5
 10
36.6447
 20
20.8657
 30
0.000000
  70
    32
  0
VERTEX
  8
VISIBLE_NARROW__ISO_
  5
2B6
 10
36.6410
 20
20.8675
 30
0.000000
  70
    32
  0
VERTEX
  8
VISIBLE_NARROW__ISO_
  5
2B7
 10
36.6373
 20
20.8693
 30
0.000000
  70
    32
  0
VERTEX
  8
VISIBLE_NARROW__ISO_
  5
2B8
 10
36.6336
 20
20.8712
 30
0.000000
  70
    32
  0
VERTEX
  8
VISIBLE_NARROW__ISO_
  5
2B9
 10
36.6299
 20
20.8730
 30
0.000000
  70
    32
  0
VERTEX
  8
VISIBLE_NARROW__ISO_
  5
2BA
 10
36.6262
 20
20.8747
 30
0.000000
  70
    32
  0
VERTEX
  8
VISIBLE_NARROW__ISO_
  5
2BB
 10
36.6225
 20
20.8765
 30
0.000000
  70
    32
  0
VERTEX
  8
VISIBLE_NARROW__ISO_
  5
2BC
 10
36.6188
 20
20.8783
 30
0.000000
  70
    32
  0
VERTEX
  8
VISIBLE_NARROW__ISO_
  5
2BD
 10
36.6151
 20
20.8800
 30
0.000000
  70
    32
  0
VERTEX
  8
VISIBLE_NARROW__ISO_
  5
2BE
 10
36.6114
 20
20.8818
 30
0.000000
  70
    32
  0
VERTEX
  8
VISIBLE_NARROW__ISO_
  5
2BF
 10
36.6077
 20
20.8835
 30
0.000000
  70
    32
  0
VERTEX
  8
VISIBLE_NARROW__ISO_
  5
2C0
 10
36.6040
 20
20.8852
 30
0.000000
  70
    32
  0
VERTEX
  8
VISIBLE_NARROW__ISO_
  5
2C1
 10
36.6002
 20
20.8869
 30
0.000000
  70
    32
  0
VERTEX
  8
VISIBLE_NARROW__ISO_
  5
2C2
 10
36.5965
 20
20.8886
 30
0.000000
  70
    32
  0
VERTEX
  8
VISIBLE_NARROW__ISO_
  5
2C3
 10
36.5928
 20
20.8903
 30
0.000000
  70
    32
  0
VERTEX
  8
VISIBLE_NARROW__ISO_
  5
2C4
 10
36.5890
 20
20.8919
 30
0.000000
  70
    32
  0
VERTEX
  8
VISIBLE_NARROW__ISO_
  5
2C5
 10
36.5853
 20
20.8936
 30
0.000000
  70
    32
  0
VERTEX
  8
VISIBLE_NARROW__ISO_
  5
2C6
 10
36.5815
 20
20.8952
 30
0.000000
  70
    32
  0
VERTEX
  8
VISIBLE_NARROW__ISO_
  5
2C7
 10
36.5778
 20
20.8969
 30
0.000000
  70
    32
  0
VERTEX
  8
VISIBLE_NARROW__ISO_
  5
2C8
 10
36.5740
 20
20.8985
 30
0.000000
  70
    32
  0
VERTEX
  8
VISIBLE_NARROW__ISO_
  5
2C9
 10
36.5702
 20
20.9001
 30
0.000000
  70
    32
  0
VERTEX
  8
VISIBLE_NARROW__ISO_
  5
2CA
 10
36.5664
 20
20.9017
 30
0.000000
  70
    32
  0
VERTEX
  8
VISIBLE_NARROW__ISO_
  5
2CB
 10
36.5627
 20
20.9033
 30
0.000000
  70
    32
  0
VERTEX
  8
VISIBLE_NARROW__ISO_
  5
2CC
 10
36.5589
 20
20.9049
 30
0.000000
  70
    32
  0
VERTEX
  8
VISIBLE_NARROW__ISO_
  5
2CD
 10
36.5551
 20
20.9064
 30
0.000000
  70
    32
  0
VERTEX
  8
VISIBLE_NARROW__ISO_
  5
2CE
 10
36.5513
 20
20.9080
 30
0.000000
  70
    32
  0
VERTEX
  8
VISIBLE_NARROW__ISO_
  5
2CF
 10
36.5475
 20
20.9095
 30
0.000000
  70
    32
  0
VERTEX
  8
VISIBLE_NARROW__ISO_
  5
2D0
 10
36.5437
 20
20.9111
 30
0.000000
  70
    32
  0
VERTEX
  8
VISIBLE_NARROW__ISO_
  5
2D1
 10
36.5399
 20
20.9126
 30
0.000000
  70
    32
  0
VERTEX
  8
VISIBLE_NARROW__ISO_
  5
2D2
 10
36.5361
 20
20.9141
 30
0.000000
  70
    32
  0
VERTEX
  8
VISIBLE_NARROW__ISO_
  5
2D3
 10
36.5322
 20
20.9156
 30
0.000000
  70
    32
  0
VERTEX
  8
VISIBLE_NARROW__ISO_
  5
2D4
 10
36.5284
 20
20.9171
 30
0.000000
  70
    32
  0
VERTEX
  8
VISIBLE_NARROW__ISO_
  5
2D5
 10
36.5246
 20
20.9185
 30
0.000000
  70
    32
  0
VERTEX
  8
VISIBLE_NARROW__ISO_
  5
2D6
 10
36.5208
 20
20.9200
 30
0.000000
  70
    32
  0
VERTEX
  8
VISIBLE_NARROW__ISO_
  5
2D7
 10
36.5169
 20
20.9214
 30
0.000000
  70
    32
  0
VERTEX
  8
VISIBLE_NARROW__ISO_
  5
2D8
 10
36.5131
 20
20.9229
 30
0.000000
  70
    32
  0
VERTEX
  8
VISIBLE_NARROW__ISO_
  5
2D9
 10
36.5092
 20
20.9243
 30
0.000000
  70
    32
  0
VERTEX
  8
VISIBLE_NARROW__ISO_
  5
2DA
 10
36.5054
 20
20.9257
 30
0.000000
  70
    32
  0
VERTEX
  8
VISIBLE_NARROW__ISO_
  5
2DB
 10
36.5015
 20
20.9271
 30
0.000000
  70
    32
  0
VERTEX
  8
VISIBLE_NARROW__ISO_
  5
2DC
 10
36.4977
 20
20.9285
 30
0.000000
  70
    32
  0
VERTEX
  8
VISIBLE_NARROW__ISO_
  5
2DD
 10
36.4938
 20
20.9299
 30
0.000000
  70
    32
  0
VERTEX
  8
VISIBLE_NARROW__ISO_
  5
2DE
 10
36.4900
 20
20.9313
 30
0.000000
  70
    32
  0
VERTEX
  8
VISIBLE_NARROW__ISO_
  5
2DF
 10
36.4861
 20
20.9326
 30
0.000000
  70
    32
  0
VERTEX
  8
VISIBLE_NARROW__ISO_
  5
2E0
 10
36.4822
 20
20.9339
 30
0.000000
  70
    32
  0
VERTEX
  8
VISIBLE_NARROW__ISO_
  5
2E1
 10
36.4783
 20
20.9353
 30
0.000000
  70
    32
  0
VERTEX
  8
VISIBLE_NARROW__ISO_
  5
2E2
 10
36.4744
 20
20.9366
 30
0.000000
  70
    32
  0
VERTEX
  8
VISIBLE_NARROW__ISO_
  5
2E3
 10
36.4706
 20
20.9379
 30
0.000000
  70
    32
  0
VERTEX
  8
VISIBLE_NARROW__ISO_
  5
2E4
 10
36.4667
 20
20.9392
 30
0.000000
  70
    32
  0
VERTEX
  8
VISIBLE_NARROW__ISO_
  5
2E5
 10
36.4628
 20
20.9405
 30
0.000000
  70
    32
  0
VERTEX
  8
VISIBLE_NARROW__ISO_
  5
2E6
 10
36.4589
 20
20.9417
 30
0.000000
  70
    32
  0
VERTEX
  8
VISIBLE_NARROW__ISO_
  5
2E7
 10
36.4550
 20
20.9430
 30
0.000000
  70
    32
  0
VERTEX
  8
VISIBLE_NARROW__ISO_
  5
2E8
 10
36.4511
 20
20.9442
 30
0.000000
  70
    32
  0
VERTEX
  8
VISIBLE_NARROW__ISO_
  5
2E9
 10
36.4471
 20
20.9455
 30
0.000000
  70
    32
  0
VERTEX
  8
VISIBLE_NARROW__ISO_
  5
2EA
 10
36.4432
 20
20.9467
 30
0.000000
  70
    32
  0
VERTEX
  8
VISIBLE_NARROW__ISO_
  5
2EB
 10
36.4393
 20
20.9479
 30
0.000000
  70
    32
  0
VERTEX
  8
VISIBLE_NARROW__ISO_
  5
2EC
 10
36.4354
 20
20.9491
 30
0.000000
  70
    32
  0
VERTEX
  8
VISIBLE_NARROW__ISO_
  5
2ED
 10
36.4315
 20
20.9503
 30
0.000000
  70
    32
  0
VERTEX
  8
VISIBLE_NARROW__ISO_
  5
2EE
 10
36.4275
 20
20.9515
 30
0.000000
  70
    32
  0
VERTEX
  8
VISIBLE_NARROW__ISO_
  5
2EF
 10
36.4236
 20
20.9526
 30
0.000000
  70
    32
  0
VERTEX
  8
VISIBLE_NARROW__ISO_
  5
2F0
 10
36.4197
 20
20.9538
 30
0.000000
  70
    32
  0
VERTEX
  8
VISIBLE_NARROW__ISO_
  5
2F1
 10
36.4157
 20
20.9549
 30
0.000000
  70
    32
  0
VERTEX
  8
VISIBLE_NARROW__ISO_
  5
2F2
 10
36.4118
 20
20.9560
 30
0.000000
  70
    32
  0
VERTEX
  8
VISIBLE_NARROW__ISO_
  5
2F3
 10
36.4078
 20
20.9571
 30
0.000000
  70
    32
  0
VERTEX
  8
VISIBLE_NARROW__ISO_
  5
2F4
 10
36.4039
 20
20.9582
 30
0.000000
  70
    32
  0
VERTEX
  8
VISIBLE_NARROW__ISO_
  5
2F5
 10
36.3999
 20
20.9593
 30
0.000000
  70
    32
  0
VERTEX
  8
VISIBLE_NARROW__ISO_
  5
2F6
 10
36.3960
 20
20.9604
 30
0.000000
  70
    32
  0
VERTEX
  8
VISIBLE_NARROW__ISO_
  5
2F7
 10
36.3920
 20
20.9615
 30
0.000000
  70
    32
  0
VERTEX
  8
VISIBLE_NARROW__ISO_
  5
2F8
 10
36.3881
 20
20.9625
 30
0.000000
  70
    32
  0
VERTEX
  8
VISIBLE_NARROW__ISO_
  5
2F9
 10
36.3841
 20
20.9635
 30
0.000000
  70
    32
  0
VERTEX
  8
VISIBLE_NARROW__ISO_
  5
2FA
 10
36.3801
 20
20.9646
 30
0.000000
  70
    32
  0
VERTEX
  8
VISIBLE_NARROW__ISO_
  5
2FB
 10
36.3761
 20
20.9656
 30
0.000000
  70
    32
  0
VERTEX
  8
VISIBLE_NARROW__ISO_
  5
2FC
 10
36.3722
 20
20.9666
 30
0.000000
  70
    32
  0
VERTEX
  8
VISIBLE_NARROW__ISO_
  5
2FD
 10
36.3682
 20
20.9676
 30
0.000000
  70
    32
  0
VERTEX
  8
VISIBLE_NARROW__ISO_
  5
2FE
 10
36.3642
 20
20.9685
 30
0.000000
  70
    32
  0
VERTEX
  8
VISIBLE_NARROW__ISO_
  5
2FF
 10
36.3602
 20
20.9695
 30
0.000000
  70
    32
  0
VERTEX
  8
VISIBLE_NARROW__ISO_
  5
300
 10
36.3562
 20
20.9705
 30
0.000000
  70
    32
  0
VERTEX
  8
VISIBLE_NARROW__ISO_
  5
301
 10
36.3522
 20
20.9714
 30
0.000000
  70
    32
  0
VERTEX
  8
VISIBLE_NARROW__ISO_
  5
302
 10
36.3483
 20
20.9723
 30
0.000000
  70
    32
  0
VERTEX
  8
VISIBLE_NARROW__ISO_
  5
303
 10
36.3443
 20
20.9733
 30
0.000000
  70
    32
  0
VERTEX
  8
VISIBLE_NARROW__ISO_
  5
304
 10
36.3403
 20
20.9742
 30
0.000000
  70
    32
  0
VERTEX
  8
VISIBLE_NARROW__ISO_
  5
305
 10
36.3363
 20
20.9750
 30
0.000000
  70
    32
  0
VERTEX
  8
VISIBLE_NARROW__ISO_
  5
306
 10
36.3322
 20
20.9759
 30
0.000000
  70
    32
  0
VERTEX
  8
VISIBLE_NARROW__ISO_
  5
307
 10
36.3282
 20
20.9768
 30
0.000000
  70
    32
  0
VERTEX
  8
VISIBLE_NARROW__ISO_
  5
308
 10
36.3242
 20
20.9776
 30
0.000000
  70
    32
  0
VERTEX
  8
VISIBLE_NARROW__ISO_
  5
309
 10
36.3202
 20
20.9785
 30
0.000000
  70
    32
  0
VERTEX
  8
VISIBLE_NARROW__ISO_
  5
30A
 10
36.3162
 20
20.9793
 30
0.000000
  70
    32
  0
VERTEX
  8
VISIBLE_NARROW__ISO_
  5
30B
 10
36.3122
 20
20.9801
 30
0.000000
  70
    32
  0
VERTEX
  8
VISIBLE_NARROW__ISO_
  5
30C
 10
36.3082
 20
20.9809
 30
0.000000
  70
    32
  0
VERTEX
  8
VISIBLE_NARROW__ISO_
  5
30D
 10
36.3041
 20
20.9817
 30
0.000000
  70
    32
  0
VERTEX
  8
VISIBLE_NARROW__ISO_
  5
30E
 10
36.3001
 20
20.9825
 30
0.000000
  70
    32
  0
VERTEX
  8
VISIBLE_NARROW__ISO_
  5
30F
 10
36.2961
 20
20.9833
 30
0.000000
  70
    32
  0
VERTEX
  8
VISIBLE_NARROW__ISO_
  5
310
 10
36.2921
 20
20.9840
 30
0.000000
  70
    32
  0
VERTEX
  8
VISIBLE_NARROW__ISO_
  5
311
 10
36.2880
 20
20.9848
 30
0.000000
  70
    32
  0
VERTEX
  8
VISIBLE_NARROW__ISO_
  5
312
 10
36.2840
 20
20.9855
 30
0.000000
  70
    32
  0
VERTEX
  8
VISIBLE_NARROW__ISO_
  5
313
 10
36.2800
 20
20.9862
 30
0.000000
  70
    32
  0
VERTEX
  8
VISIBLE_NARROW__ISO_
  5
314
 10
36.2759
 20
20.9869
 30
0.000000
  70
    32
  0
VERTEX
  8
VISIBLE_NARROW__ISO_
  5
315
 10
36.2719
 20
20.9876
 30
0.000000
  70
    32
  0
VERTEX
  8
VISIBLE_NARROW__ISO_
  5
316
 10
36.2678
 20
20.9883
 30
0.000000
  70
    32
  0
VERTEX
  8
VISIBLE_NARROW__ISO_
  5
317
 10
36.2638
 20
20.9890
 30
0.000000
  70
    32
  0
VERTEX
  8
VISIBLE_NARROW__ISO_
  5
318
 10
36.2597
 20
20.9896
 30
0.000000
  70
    32
  0
VERTEX
  8
VISIBLE_NARROW__ISO_
  5
319
 10
36.2557
 20
20.9903
 30
0.000000
  70
    32
  0
VERTEX
  8
VISIBLE_NARROW__ISO_
  5
31A
 10
36.2516
 20
20.9909
 30
0.000000
  70
    32
  0
VERTEX
  8
VISIBLE_NARROW__ISO_
  5
31B
 10
36.2476
 20
20.9915
 30
0.000000
  70
    32
  0
VERTEX
  8
VISIBLE_NARROW__ISO_
  5
31C
 10
36.2435
 20
20.9921
 30
0.000000
  70
    32
  0
VERTEX
  8
VISIBLE_NARROW__ISO_
  5
31D
 10
36.2395
 20
20.9927
 30
0.000000
  70
    32
  0
VERTEX
  8
VISIBLE_NARROW__ISO_
  5
31E
 10
36.2354
 20
20.9933
 30
0.000000
  70
    32
  0
VERTEX
  8
VISIBLE_NARROW__ISO_
  5
31F
 10
36.2314
 20
20.9939
 30
0.000000
  70
    32
  0
VERTEX
  8
VISIBLE_NARROW__ISO_
  5
320
 10
36.2273
 20
20.9945
 30
0.000000
  70
    32
  0
VERTEX
  8
VISIBLE_NARROW__ISO_
  5
321
 10
36.2232
 20
20.9950
 30
0.000000
  70
    32
  0
VERTEX
  8
VISIBLE_NARROW__ISO_
  5
322
 10
36.2192
 20
20.9955
 30
0.000000
  70
    32
  0
VERTEX
  8
VISIBLE_NARROW__ISO_
  5
323
 10
36.2151
 20
20.9960
 30
0.000000
  70
    32
  0
VERTEX
  8
VISIBLE_NARROW__ISO_
  5
324
 10
36.2110
 20
20.9966
 30
0.000000
  70
    32
  0
VERTEX
  8
VISIBLE_NARROW__ISO_
  5
325
 10
36.2070
 20
20.9971
 30
0.000000
  70
    32
  0
VERTEX
  8
VISIBLE_NARROW__ISO_
  5
326
 10
36.2029
 20
20.9975
 30
0.000000
  70
    32
  0
VERTEX
  8
VISIBLE_NARROW__ISO_
  5
327
 10
36.1988
 20
20.9980
 30
0.000000
  70
    32
  0
VERTEX
  8
VISIBLE_NARROW__ISO_
  5
328
 10
36.1947
 20
20.9985
 30
0.000000
  70
    32
  0
VERTEX
  8
VISIBLE_NARROW__ISO_
  5
329
 10
36.1907
 20
20.9989
 30
0.000000
  70
    32
  0
VERTEX
  8
VISIBLE_NARROW__ISO_
  5
32A
 10
36.1866
 20
20.9993
 30
0.000000
  70
    32
  0
VERTEX
  8
VISIBLE_NARROW__ISO_
  5
32B
 10
36.1825
 20
20.9998
 30
0.000000
  70
    32
  0
VERTEX
  8
VISIBLE_NARROW__ISO_
  5
32C
 10
36.1784
 20
21.0002
 30
0.000000
  70
    32
  0
VERTEX
  8
VISIBLE_NARROW__ISO_
  5
32D
 10
36.1744
 20
21.0006
 30
0.000000
  70
    32
  0
VERTEX
  8
VISIBLE_NARROW__ISO_
  5
32E
 10
36.1703
 20
21.0009
 30
0.000000
  70
    32
  0
VERTEX
  8
VISIBLE_NARROW__ISO_
  5
32F
 10
36.1662
 20
21.0013
 30
0.000000
  70
    32
  0
VERTEX
  8
VISIBLE_NARROW__ISO_
  5
330
 10
36.1621
 20
21.0017
 30
0.000000
  70
    32
  0
VERTEX
  8
VISIBLE_NARROW__ISO_
  5
331
 10
36.1580
 20
21.0020
 30
0.000000
  70
    32
  0
VERTEX
  8
VISIBLE_NARROW__ISO_
  5
332
 10
36.1539
 20
21.0024
 30
0.000000
  70
    32
  0
VERTEX
  8
VISIBLE_NARROW__ISO_
  5
333
 10
36.1498
 20
21.0027
 30
0.000000
  70
    32
  0
VERTEX
  8
VISIBLE_NARROW__ISO_
  5
334
 10
36.1458
 20
21.0030
 30
0.000000
  70
    32
  0
VERTEX
  8
VISIBLE_NARROW__ISO_
  5
335
 10
36.1417
 20
21.0033
 30
0.000000
  70
    32
  0
VERTEX
  8
VISIBLE_NARROW__ISO_
  5
336
 10
36.1376
 20
21.0036
 30
0.000000
  70
    32
  0
VERTEX
  8
VISIBLE_NARROW__ISO_
  5
337
 10
36.1335
 20
21.0038
 30
0.000000
  70
    32
  0
VERTEX
  8
VISIBLE_NARROW__ISO_
  5
338
 10
36.1294
 20
21.0041
 30
0.000000
  70
    32
  0
VERTEX
  8
VISIBLE_NARROW__ISO_
  5
339
 10
36.1253
 20
21.0043
 30
0.000000
  70
    32
  0
VERTEX
  8
VISIBLE_NARROW__ISO_
  5
33A
 10
36.1212
 20
21.0046
 30
0.000000
  70
    32
  0
VERTEX
  8
VISIBLE_NARROW__ISO_
  5
33B
 10
36.1171
 20
21.0048
 30
0.000000
  70
    32
  0
VERTEX
  8
VISIBLE_NARROW__ISO_
  5
33C
 10
36.1130
 20
21.0050
 30
0.000000
  70
    32
  0
VERTEX
  8
VISIBLE_NARROW__ISO_
  5
33D
 10
36.1089
 20
21.0052
 30
0.000000
  70
    32
  0
VERTEX
  8
VISIBLE_NARROW__ISO_
  5
33E
 10
36.1048
 20
21.0054
 30
0.000000
  70
    32
  0
VERTEX
  8
VISIBLE_NARROW__ISO_
  5
33F
 10
36.1007
 20
21.0055
 30
0.000000
  70
    32
  0
VERTEX
  8
VISIBLE_NARROW__ISO_
  5
340
 10
36.0966
 20
21.0057
 30
0.000000
  70
    32
  0
VERTEX
  8
VISIBLE_NARROW__ISO_
  5
341
 10
36.0925
 20
21.0058
 30
0.000000
  70
    32
  0
VERTEX
  8
VISIBLE_NARROW__ISO_
  5
342
 10
36.0884
 20
21.0060
 30
0.000000
  70
    32
  0
VERTEX
  8
VISIBLE_NARROW__ISO_
  5
343
 10
36.0843
 20
21.0061
 30
0.000000
  70
    32
  0
VERTEX
  8
VISIBLE_NARROW__ISO_
  5
344
 10
36.0802
 20
21.0062
 30
0.000000
  70
    32
  0
VERTEX
  8
VISIBLE_NARROW__ISO_
  5
345
 10
36.0761
 20
21.0063
 30
0.000000
  70
    32
  0
VERTEX
  8
VISIBLE_NARROW__ISO_
  5
346
 10
36.0721
 20
21.0064
 30
0.000000
  70
    32
  0
VERTEX
  8
VISIBLE_NARROW__ISO_
  5
347
 10
36.0680
 20
21.0064
 30
0.000000
  70
    32
  0
VERTEX
  8
VISIBLE_NARROW__ISO_
  5
348
 10
36.0639
 20
21.0065
 30
0.000000
  70
    32
  0
VERTEX
  8
VISIBLE_NARROW__ISO_
  5
349
 10
36.0598
 20
21.0065
 30
0.000000
  70
    32
  0
VERTEX
  8
VISIBLE_NARROW__ISO_
  5
34A
 10
36.0557
 20
21.0066
 30
0.000000
  70
    32
  0
VERTEX
  8
VISIBLE_NARROW__ISO_
  5
34B
 10
36.0516
 20
21.0066
 30
0.000000
  70
    32
  0
VERTEX
  8
VISIBLE_NARROW__ISO_
  5
34C
 10
36.0475
 20
21.0066
 30
0.000000
  70
    32
  0
SEQEND
  8
VISIBLE_NARROW__ISO_
  5
34D
  0
POLYLINE
  8
VISIBLE_NARROW__ISO_
  5
34E
  66
     1
 10
0.000000
 20
0.000000
 30
0.000000
  70
     8
  0
VERTEX
  8
VISIBLE_NARROW__ISO_
  5
34F
 10
8.69202
 20
21.0066
 30
0.000000
  70
    32
  0
VERTEX
  8
VISIBLE_NARROW__ISO_
  5
350
 10
8.68792
 20
21.0066
 30
0.000000
  70
    32
  0
VERTEX
  8
VISIBLE_NARROW__ISO_
  5
351
 10
8.68382
 20
21.0066
 30
0.000000
  70
    32
  0
VERTEX
  8
VISIBLE_NARROW__ISO_
  5
352
 10
8.67973
 20
21.0065
 30
0.000000
  70
    32
  0
VERTEX
  8
VISIBLE_NARROW__ISO_
  5
353
 10
8.67563
 20
21.0065
 30
0.000000
  70
    32
  0
VERTEX
  8
VISIBLE_NARROW__ISO_
  5
354
 10
8.67153
 20
21.0064
 30
0.000000
  70
    32
  0
VERTEX
  8
VISIBLE_NARROW__ISO_
  5
355
 10
8.66743
 20
21.0064
 30
0.000000
  70
    32
  0
VERTEX
  8
VISIBLE_NARROW__ISO_
  5
356
 10
8.66333
 20
21.0063
 30
0.000000
  70
    32
  0
VERTEX
  8
VISIBLE_NARROW__ISO_
  5
357
 10
8.65923
 20
21.0062
 30
0.000000
  70
    32
  0
VERTEX
  8
VISIBLE_NARROW__ISO_
  5
358
 10
8.65513
 20
21.0061
 30
0.000000
  70
    32
  0
VERTEX
  8
VISIBLE_NARROW__ISO_
  5
359
 10
8.65103
 20
21.0060
 30
0.000000
  70
    32
  0
VERTEX
  8
VISIBLE_NARROW__ISO_
  5
35A
 10
8.64694
 20
21.0058
 30
0.000000
  70
    32
  0
VERTEX
  8
VISIBLE_NARROW__ISO_
  5
35B
 10
8.64284
 20
21.0057
 30
0.000000
  70
    32
  0
VERTEX
  8
VISIBLE_NARROW__ISO_
  5
35C
 10
8.63874
 20
21.0055
 30
0.000000
  70
    32
  0
VERTEX
  8
VISIBLE_NARROW__ISO_
  5
35D
 10
8.63465
 20
21.0054
 30
0.000000
  70
    32
  0
VERTEX
  8
VISIBLE_NARROW__ISO_
  5
35E
 10
8.63055
 20
21.0052
 30
0.000000
  70
    32
  0
VERTEX
  8
VISIBLE_NARROW__ISO_
  5
35F
 10
8.62646
 20
21.0050
 30
0.000000
  70
    32
  0
VERTEX
  8
VISIBLE_NARROW__ISO_
  5
360
 10
8.62236
 20
21.0048
 30
0.000000
  70
    32
  0
VERTEX
  8
VISIBLE_NARROW__ISO_
  5
361
 10
8.61827
 20
21.0046
 30
0.000000
  70
    32
  0
VERTEX
  8
VISIBLE_NARROW__ISO_
  5
362
 10
8.61417
 20
21.0043
 30
0.000000
  70
    32
  0
VERTEX
  8
VISIBLE_NARROW__ISO_
  5
363
 10
8.61008
 20
21.0041
 30
0.000000
  70
    32
  0
VERTEX
  8
VISIBLE_NARROW__ISO_
  5
364
 10
8.60599
 20
21.0038
 30
0.000000
  70
    32
  0
VERTEX
  8
VISIBLE_NARROW__ISO_
  5
365
 10
8.60190
 20
21.0036
 30
0.000000
  70
    32
  0
VERTEX
  8
VISIBLE_NARROW__ISO_
  5
366
 10
8.59781
 20
21.0033
 30
0.000000
  70
    32
  0
VERTEX
  8
VISIBLE_NARROW__ISO_
  5
367
 10
8.59372
 20
21.0030
 30
0.000000
  70
    32
  0
VERTEX
  8
VISIBLE_NARROW__ISO_
  5
368
 10
8.58963
 20
21.0027
 30
0.000000
  70
    32
  0
VERTEX
  8
VISIBLE_NARROW__ISO_
  5
369
 10
8.58554
 20
21.0024
 30
0.000000
  70
    32
  0
VERTEX
  8
VISIBLE_NARROW__ISO_
  5
36A
 10
8.58146
 20
21.0020
 30
0.000000
  70
    32
  0
VERTEX
  8
VISIBLE_NARROW__ISO_
  5
36B
 10
8.57737
 20
21.0017
 30
0.000000
  70
    32
  0
VERTEX
  8
VISIBLE_NARROW__ISO_
  5
36C
 10
8.57329
 20
21.0013
 30
0.000000
  70
    32
  0
VERTEX
  8
VISIBLE_NARROW__ISO_
  5
36D
 10
8.56921
 20
21.0010
 30
0.000000
  70
    32
  0
VERTEX
  8
VISIBLE_NARROW__ISO_
  5
36E
 10
8.56512
 20
21.0006
 30
0.000000
  70
    32
  0
VERTEX
  8
VISIBLE_NARROW__ISO_
  5
36F
 10
8.56104
 20
21.0002
 30
0.000000
  70
    32
  0
VERTEX
  8
VISIBLE_NARROW__ISO_
  5
370
 10
8.55696
 20
20.9998
 30
0.000000
  70
    32
  0
VERTEX
  8
VISIBLE_NARROW__ISO_
  5
371
 10
8.55288
 20
20.9993
 30
0.000000
  70
    32
  0
VERTEX
  8
VISIBLE_NARROW__ISO_
  5
372
 10
8.54881
 20
20.9989
 30
0.000000
  70
    32
  0
VERTEX
  8
VISIBLE_NARROW__ISO_
  5
373
 10
8.54473
 20
20.9985
 30
0.000000
  70
    32
  0
VERTEX
  8
VISIBLE_NARROW__ISO_
  5
374
 10
8.54066
 20
20.9980
 30
0.000000
  70
    32
  0
VERTEX
  8
VISIBLE_NARROW__ISO_
  5
375
 10
8.53658
 20
20.9975
 30
0.000000
  70
    32
  0
VERTEX
  8
VISIBLE_NARROW__ISO_
  5
376
 10
8.53251
 20
20.9971
 30
0.000000
  70
    32
  0
VERTEX
  8
VISIBLE_NARROW__ISO_
  5
377
 10
8.52844
 20
20.9966
 30
0.000000
  70
    32
  0
VERTEX
  8
VISIBLE_NARROW__ISO_
  5
378
 10
8.52438
 20
20.9961
 30
0.000000
  70
    32
  0
VERTEX
  8
VISIBLE_NARROW__ISO_
  5
379
 10
8.52031
 20
20.9955
 30
0.000000
  70
    32
  0
VERTEX
  8
VISIBLE_NARROW__ISO_
  5
37A
 10
8.51624
 20
20.9950
 30
0.000000
  70
    32
  0
VERTEX
  8
VISIBLE_NARROW__ISO_
  5
37B
 10
8.51218
 20
20.9945
 30
0.000000
  70
    32
  0
VERTEX
  8
VISIBLE_NARROW__ISO_
  5
37C
 10
8.50812
 20
20.9939
 30
0.000000
  70
    32
  0
VERTEX
  8
VISIBLE_NARROW__ISO_
  5
37D
 10
8.50406
 20
20.9933
 30
0.000000
  70
    32
  0
VERTEX
  8
VISIBLE_NARROW__ISO_
  5
37E
 10
8.50000
 20
20.9928
 30
0.000000
  70
    32
  0
VERTEX
  8
VISIBLE_NARROW__ISO_
  5
37F
 10
8.49594
 20
20.9922
 30
0.000000
  70
    32
  0
VERTEX
  8
VISIBLE_NARROW__ISO_
  5
380
 10
8.49189
 20
20.9916
 30
0.000000
  70
    32
  0
VERTEX
  8
VISIBLE_NARROW__ISO_
  5
381
 10
8.48783
 20
20.9909
 30
0.000000
  70
    32
  0
VERTEX
  8
VISIBLE_NARROW__ISO_
  5
382
 10
8.48378
 20
20.9903
 30
0.000000
  70
    32
  0
VERTEX
  8
VISIBLE_NARROW__ISO_
  5
383
 10
8.47973
 20
20.9897
 30
0.000000
  70
    32
  0
VERTEX
  8
VISIBLE_NARROW__ISO_
  5
384
 10
8.47569
 20
20.9890
 30
0.000000
  70
    32
  0
VERTEX
  8
VISIBLE_NARROW__ISO_
  5
385
 10
8.47164
 20
20.9883
 30
0.000000
  70
    32
  0
VERTEX
  8
VISIBLE_NARROW__ISO_
  5
386
 10
8.46760
 20
20.9877
 30
0.000000
  70
    32
  0
VERTEX
  8
VISIBLE_NARROW__ISO_
  5
387
 10
8.46356
 20
20.9870
 30
0.000000
  70
    32
  0
VERTEX
  8
VISIBLE_NARROW__ISO_
  5
388
 10
8.45952
 20
20.9863
 30
0.000000
  70
    32
  0
VERTEX
  8
VISIBLE_NARROW__ISO_
  5
389
 10
8.45548
 20
20.9855
 30
0.000000
  70
    32
  0
VERTEX
  8
VISIBLE_NARROW__ISO_
  5
38A
 10
8.45145
 20
20.9848
 30
0.000000
  70
    32
  0
VERTEX
  8
VISIBLE_NARROW__ISO_
  5
38B
 10
8.44742
 20
20.9841
 30
0.000000
  70
    32
  0
VERTEX
  8
VISIBLE_NARROW__ISO_
  5
38C
 10
8.44339
 20
20.9833
 30
0.000000
  70
    32
  0
VERTEX
  8
VISIBLE_NARROW__ISO_
  5
38D
 10
8.43936
 20
20.9825
 30
0.000000
  70
    32
  0
VERTEX
  8
VISIBLE_NARROW__ISO_
  5
38E
 10
8.43533
 20
20.9817
 30
0.000000
  70
    32
  0
VERTEX
  8
VISIBLE_NARROW__ISO_
  5
38F
 10
8.43131
 20
20.9810
 30
0.000000
  70
    32
  0
VERTEX
  8
VISIBLE_NARROW__ISO_
  5
390
 10
8.42729
 20
20.9801
 30
0.000000
  70
    32
  0
VERTEX
  8
VISIBLE_NARROW__ISO_
  5
391
 10
8.42327
 20
20.9793
 30
0.000000
  70
    32
  0
VERTEX
  8
VISIBLE_NARROW__ISO_
  5
392
 10
8.41926
 20
20.9785
 30
0.000000
  70
    32
  0
VERTEX
  8
VISIBLE_NARROW__ISO_
  5
393
 10
8.41525
 20
20.9777
 30
0.000000
  70
    32
  0
VERTEX
  8
VISIBLE_NARROW__ISO_
  5
394
 10
8.41124
 20
20.9768
 30
0.000000
  70
    32
  0
VERTEX
  8
VISIBLE_NARROW__ISO_
  5
395
 10
8.40723
 20
20.9759
 30
0.000000
  70
    32
  0
VERTEX
  8
VISIBLE_NARROW__ISO_
  5
396
 10
8.40323
 20
20.9751
 30
0.000000
  70
    32
  0
VERTEX
  8
VISIBLE_NARROW__ISO_
  5
397
 10
8.39922
 20
20.9742
 30
0.000000
  70
    32
  0
VERTEX
  8
VISIBLE_NARROW__ISO_
  5
398
 10
8.39522
 20
20.9733
 30
0.000000
  70
    32
  0
VERTEX
  8
VISIBLE_NARROW__ISO_
  5
399
 10
8.39123
 20
20.9723
 30
0.000000
  70
    32
  0
VERTEX
  8
VISIBLE_NARROW__ISO_
  5
39A
 10
8.38723
 20
20.9714
 30
0.000000
  70
    32
  0
VERTEX
  8
VISIBLE_NARROW__ISO_
  5
39B
 10
8.38324
 20
20.9705
 30
0.000000
  70
    32
  0
VERTEX
  8
VISIBLE_NARROW__ISO_
  5
39C
 10
8.37926
 20
20.9695
 30
0.000000
  70
    32
  0
VERTEX
  8
VISIBLE_NARROW__ISO_
  5
39D
 10
8.37527
 20
20.9685
 30
0.000000
  70
    32
  0
VERTEX
  8
VISIBLE_NARROW__ISO_
  5
39E
 10
8.37129
 20
20.9676
 30
0.000000
  70
    32
  0
VERTEX
  8
VISIBLE_NARROW__ISO_
  5
39F
 10
8.36731
 20
20.9666
 30
0.000000
  70
    32
  0
VERTEX
  8
VISIBLE_NARROW__ISO_
  5
3A0
 10
8.36334
 20
20.9656
 30
0.000000
  70
    32
  0
VERTEX
  8
VISIBLE_NARROW__ISO_
  5
3A1
 10
8.35936
 20
20.9646
 30
0.000000
  70
    32
  0
VERTEX
  8
VISIBLE_NARROW__ISO_
  5
3A2
 10
8.35539
 20
20.9635
 30
0.000000
  70
    32
  0
VERTEX
  8
VISIBLE_NARROW__ISO_
  5
3A3
 10
8.35143
 20
20.9625
 30
0.000000
  70
    32
  0
VERTEX
  8
VISIBLE_NARROW__ISO_
  5
3A4
 10
8.34746
 20
20.9614
 30
0.000000
  70
    32
  0
VERTEX
  8
VISIBLE_NARROW__ISO_
  5
3A5
 10
8.34350
 20
20.9604
 30
0.000000
  70
    32
  0
VERTEX
  8
VISIBLE_NARROW__ISO_
  5
3A6
 10
8.33955
 20
20.9593
 30
0.000000
  70
    32
  0
VERTEX
  8
VISIBLE_NARROW__ISO_
  5
3A7
 10
8.33559
 20
20.9582
 30
0.000000
  70
    32
  0
VERTEX
  8
VISIBLE_NARROW__ISO_
  5
3A8
 10
8.33164
 20
20.9571
 30
0.000000
  70
    32
  0
VERTEX
  8
VISIBLE_NARROW__ISO_
  5
3A9
 10
8.32770
 20
20.9560
 30
0.000000
  70
    32
  0
VERTEX
  8
VISIBLE_NARROW__ISO_
  5
3AA
 10
8.32375
 20
20.9549
 30
0.000000
  70
    32
  0
VERTEX
  8
VISIBLE_NARROW__ISO_
  5
3AB
 10
8.31981
 20
20.9537
 30
0.000000
  70
    32
  0
VERTEX
  8
VISIBLE_NARROW__ISO_
  5
3AC
 10
8.31588
 20
20.9526
 30
0.000000
  70
    32
  0
VERTEX
  8
VISIBLE_NARROW__ISO_
  5
3AD
 10
8.31194
 20
20.9514
 30
0.000000
  70
    32
  0
VERTEX
  8
VISIBLE_NARROW__ISO_
  5
3AE
 10
8.30802
 20
20.9503
 30
0.000000
  70
    32
  0
VERTEX
  8
VISIBLE_NARROW__ISO_
  5
3AF
 10
8.30409
 20
20.9491
 30
0.000000
  70
    32
  0
VERTEX
  8
VISIBLE_NARROW__ISO_
  5
3B0
 10
8.30017
 20
20.9479
 30
0.000000
  70
    32
  0
VERTEX
  8
VISIBLE_NARROW__ISO_
  5
3B1
 10
8.29625
 20
20.9467
 30
0.000000
  70
    32
  0
VERTEX
  8
VISIBLE_NARROW__ISO_
  5
3B2
 10
8.29233
 20
20.9455
 30
0.000000
  70
    32
  0
VERTEX
  8
VISIBLE_NARROW__ISO_
  5
3B3
 10
8.28842
 20
20.9442
 30
0.000000
  70
    32
  0
VERTEX
  8
VISIBLE_NARROW__ISO_
  5
3B4
 10
8.28452
 20
20.9430
 30
0.000000
  70
    32
  0
VERTEX
  8
VISIBLE_NARROW__ISO_
  5
3B5
 10
8.28061
 20
20.9417
 30
0.000000
  70
    32
  0
VERTEX
  8
VISIBLE_NARROW__ISO_
  5
3B6
 10
8.27671
 20
20.9405
 30
0.000000
  70
    32
  0
VERTEX
  8
VISIBLE_NARROW__ISO_
  5
3B7
 10
8.27282
 20
20.9392
 30
0.000000
  70
    32
  0
VERTEX
  8
VISIBLE_NARROW__ISO_
  5
3B8
 10
8.26893
 20
20.9379
 30
0.000000
  70
    32
  0
VERTEX
  8
VISIBLE_NARROW__ISO_
  5
3B9
 10
8.26504
 20
20.9366
 30
0.000000
  70
    32
  0
VERTEX
  8
VISIBLE_NARROW__ISO_
  5
3BA
 10
8.26116
 20
20.9353
 30
0.000000
  70
    32
  0
VERTEX
  8
VISIBLE_NARROW__ISO_
  5
3BB
 10
8.25728
 20
20.9339
 30
0.000000
  70
    32
  0
VERTEX
  8
VISIBLE_NARROW__ISO_
  5
3BC
 10
8.25340
 20
20.9326
 30
0.000000
  70
    32
  0
VERTEX
  8
VISIBLE_NARROW__ISO_
  5
3BD
 10
8.24953
 20
20.9312
 30
0.000000
  70
    32
  0
VERTEX
  8
VISIBLE_NARROW__ISO_
  5
3BE
 10
8.24566
 20
20.9299
 30
0.000000
  70
    32
  0
VERTEX
  8
VISIBLE_NARROW__ISO_
  5
3BF
 10
8.24180
 20
20.9285
 30
0.000000
  70
    32
  0
VERTEX
  8
VISIBLE_NARROW__ISO_
  5
3C0
 10
8.23794
 20
20.9271
 30
0.000000
  70
    32
  0
VERTEX
  8
VISIBLE_NARROW__ISO_
  5
3C1
 10
8.23409
 20
20.9257
 30
0.000000
  70
    32
  0
VERTEX
  8
VISIBLE_NARROW__ISO_
  5
3C2
 10
8.23024
 20
20.9243
 30
0.000000
  70
    32
  0
VERTEX
  8
VISIBLE_NARROW__ISO_
  5
3C3
 10
8.22639
 20
20.9229
 30
0.000000
  70
    32
  0
VERTEX
  8
VISIBLE_NARROW__ISO_
  5
3C4
 10
8.22255
 20
20.9214
 30
0.000000
  70
    32
  0
VERTEX
  8
VISIBLE_NARROW__ISO_
  5
3C5
 10
8.21871
 20
20.9200
 30
0.000000
  70
    32
  0
VERTEX
  8
VISIBLE_NARROW__ISO_
  5
3C6
 10
8.21488
 20
20.9185
 30
0.000000
  70
    32
  0
VERTEX
  8
VISIBLE_NARROW__ISO_
  5
3C7
 10
8.21105
 20
20.9171
 30
0.000000
  70
    32
  0
VERTEX
  8
VISIBLE_NARROW__ISO_
  5
3C8
 10
8.20723
 20
20.9156
 30
0.000000
  70
    32
  0
VERTEX
  8
VISIBLE_NARROW__ISO_
  5
3C9
 10
8.20341
 20
20.9141
 30
0.000000
  70
    32
  0
VERTEX
  8
VISIBLE_NARROW__ISO_
  5
3CA
 10
8.19960
 20
20.9126
 30
0.000000
  70
    32
  0
VERTEX
  8
VISIBLE_NARROW__ISO_
  5
3CB
 10
8.19579
 20
20.9111
 30
0.000000
  70
    32
  0
VERTEX
  8
VISIBLE_NARROW__ISO_
  5
3CC
 10
8.19198
 20
20.9095
 30
0.000000
  70
    32
  0
VERTEX
  8
VISIBLE_NARROW__ISO_
  5
3CD
 10
8.18818
 20
20.9080
 30
0.000000
  70
    32
  0
VERTEX
  8
VISIBLE_NARROW__ISO_
  5
3CE
 10
8.18439
 20
20.9064
 30
0.000000
  70
    32
  0
VERTEX
  8
VISIBLE_NARROW__ISO_
  5
3CF
 10
8.18060
 20
20.9049
 30
0.000000
  70
    32
  0
VERTEX
  8
VISIBLE_NARROW__ISO_
  5
3D0
 10
8.17681
 20
20.9033
 30
0.000000
  70
    32
  0
VERTEX
  8
VISIBLE_NARROW__ISO_
  5
3D1
 10
8.17303
 20
20.9017
 30
0.000000
  70
    32
  0
VERTEX
  8
VISIBLE_NARROW__ISO_
  5
3D2
 10
8.16925
 20
20.9001
 30
0.000000
  70
    32
  0
VERTEX
  8
VISIBLE_NARROW__ISO_
  5
3D3
 10
8.16548
 20
20.8985
 30
0.000000
  70
    32
  0
VERTEX
  8
VISIBLE_NARROW__ISO_
  5
3D4
 10
8.16172
 20
20.8969
 30
0.000000
  70
    32
  0
VERTEX
  8
VISIBLE_NARROW__ISO_
  5
3D5
 10
8.15795
 20
20.8953
 30
0.000000
  70
    32
  0
VERTEX
  8
VISIBLE_NARROW__ISO_
  5
3D6
 10
8.15420
 20
20.8936
 30
0.000000
  70
    32
  0
VERTEX
  8
VISIBLE_NARROW__ISO_
  5
3D7
 10
8.15045
 20
20.8920
 30
0.000000
  70
    32
  0
VERTEX
  8
VISIBLE_NARROW__ISO_
  5
3D8
 10
8.14670
 20
20.8903
 30
0.000000
  70
    32
  0
VERTEX
  8
VISIBLE_NARROW__ISO_
  5
3D9
 10
8.14296
 20
20.8886
 30
0.000000
  70
    32
  0
VERTEX
  8
VISIBLE_NARROW__ISO_
  5
3DA
 10
8.13923
 20
20.8869
 30
0.000000
  70
    32
  0
VERTEX
  8
VISIBLE_NARROW__ISO_
  5
3DB
 10
8.13549
 20
20.8852
 30
0.000000
  70
    32
  0
VERTEX
  8
VISIBLE_NARROW__ISO_
  5
3DC
 10
8.13177
 20
20.8835
 30
0.000000
  70
    32
  0
VERTEX
  8
VISIBLE_NARROW__ISO_
  5
3DD
 10
8.12805
 20
20.8818
 30
0.000000
  70
    32
  0
VERTEX
  8
VISIBLE_NARROW__ISO_
  5
3DE
 10
8.12434
 20
20.8800
 30
0.000000
  70
    32
  0
VERTEX
  8
VISIBLE_NARROW__ISO_
  5
3DF
 10
8.12063
 20
20.8783
 30
0.000000
  70
    32
  0
VERTEX
  8
VISIBLE_NARROW__ISO_
  5
3E0
 10
8.11692
 20
20.8765
 30
0.000000
  70
    32
  0
VERTEX
  8
VISIBLE_NARROW__ISO_
  5
3E1
 10
8.11323
 20
20.8748
 30
0.000000
  70
    32
  0
VERTEX
  8
VISIBLE_NARROW__ISO_
  5
3E2
 10
8.10953
 20
20.8730
 30
0.000000
  70
    32
  0
VERTEX
  8
VISIBLE_NARROW__ISO_
  5
3E3
 10
8.10585
 20
20.8712
 30
0.000000
  70
    32
  0
VERTEX
  8
VISIBLE_NARROW__ISO_
  5
3E4
 10
8.10216
 20
20.8694
 30
0.000000
  70
    32
  0
VERTEX
  8
VISIBLE_NARROW__ISO_
  5
3E5
 10
8.09849
 20
20.8675
 30
0.000000
  70
    32
  0
VERTEX
  8
VISIBLE_NARROW__ISO_
  5
3E6
 10
8.09482
 20
20.8657
 30
0.000000
  70
    32
  0
VERTEX
  8
VISIBLE_NARROW__ISO_
  5
3E7
 10
8.09115
 20
20.8639
 30
0.000000
  70
    32
  0
VERTEX
  8
VISIBLE_NARROW__ISO_
  5
3E8
 10
8.08749
 20
20.8620
 30
0.000000
  70
    32
  0
VERTEX
  8
VISIBLE_NARROW__ISO_
  5
3E9
 10
8.08384
 20
20.8602
 30
0.000000
  70
    32
  0
VERTEX
  8
VISIBLE_NARROW__ISO_
  5
3EA
 10
8.08019
 20
20.8583
 30
0.000000
  70
    32
  0
VERTEX
  8
VISIBLE_NARROW__ISO_
  5
3EB
 10
8.07655
 20
20.8564
 30
0.000000
  70
    32
  0
VERTEX
  8
VISIBLE_NARROW__ISO_
  5
3EC
 10
8.07292
 20
20.8545
 30
0.000000
  70
    32
  0
VERTEX
  8
VISIBLE_NARROW__ISO_
  5
3ED
 10
8.06929
 20
20.8526
 30
0.000000
  70
    32
  0
VERTEX
  8
VISIBLE_NARROW__ISO_
  5
3EE
 10
8.06566
 20
20.8507
 30
0.000000
  70
    32
  0
VERTEX
  8
VISIBLE_NARROW__ISO_
  5
3EF
 10
8.06204
 20
20.8488
 30
0.000000
  70
    32
  0
VERTEX
  8
VISIBLE_NARROW__ISO_
  5
3F0
 10
8.05843
 20
20.8468
 30
0.000000
  70
    32
  0
VERTEX
  8
VISIBLE_NARROW__ISO_
  5
3F1
 10
8.05483
 20
20.8449
 30
0.000000
  70
    32
  0
VERTEX
  8
VISIBLE_NARROW__ISO_
  5
3F2
 10
8.05123
 20
20.8429
 30
0.000000
  70
    32
  0
VERTEX
  8
VISIBLE_NARROW__ISO_
  5
3F3
 10
8.04763
 20
20.8409
 30
0.000000
  70
    32
  0
VERTEX
  8
VISIBLE_NARROW__ISO_
  5
3F4
 10
8.04404
 20
20.8389
 30
0.000000
  70
    32
  0
VERTEX
  8
VISIBLE_NARROW__ISO_
  5
3F5
 10
8.04046
 20
20.8369
 30
0.000000
  70
    32
  0
VERTEX
  8
VISIBLE_NARROW__ISO_
  5
3F6
 10
8.03689
 20
20.8349
 30
0.000000
  70
    32
  0
VERTEX
  8
VISIBLE_NARROW__ISO_
  5
3F7
 10
8.03332
 20
20.8329
 30
0.000000
  70
    32
  0
VERTEX
  8
VISIBLE_NARROW__ISO_
  5
3F8
 10
8.02975
 20
20.8309
 30
0.000000
  70
    32
  0
VERTEX
  8
VISIBLE_NARROW__ISO_
  5
3F9
 10
8.02619
 20
20.8288
 30
0.000000
  70
    32
  0
VERTEX
  8
VISIBLE_NARROW__ISO_
  5
3FA
 10
8.02264
 20
20.8268
 30
0.000000
  70
    32
  0
VERTEX
  8
VISIBLE_NARROW__ISO_
  5
3FB
 10
8.01910
 20
20.8247
 30
0.000000
  70
    32
  0
VERTEX
  8
VISIBLE_NARROW__ISO_
  5
3FC
 10
8.01556
 20
20.8227
 30
0.000000
  70
    32
  0
VERTEX
  8
VISIBLE_NARROW__ISO_
  5
3FD
 10
8.01203
 20
20.8206
 30
0.000000
  70
    32
  0
VERTEX
  8
VISIBLE_NARROW__ISO_
  5
3FE
 10
8.00850
 20
20.8185
 30
0.000000
  70
    32
  0
VERTEX
  8
VISIBLE_NARROW__ISO_
  5
3FF
 10
8.00498
 20
20.8164
 30
0.000000
  70
    32
  0
VERTEX
  8
VISIBLE_NARROW__ISO_
  5
400
 10
8.00147
 20
20.8143
 30
0.000000
  70
    32
  0
VERTEX
  8
VISIBLE_NARROW__ISO_
  5
401
 10
7.99797
 20
20.8121
 30
0.000000
  70
    32
  0
VERTEX
  8
VISIBLE_NARROW__ISO_
  5
402
 10
7.99447
 20
20.8100
 30
0.000000
  70
    32
  0
VERTEX
  8
VISIBLE_NARROW__ISO_
  5
403
 10
7.99097
 20
20.8078
 30
0.000000
  70
    32
  0
VERTEX
  8
VISIBLE_NARROW__ISO_
  5
404
 10
7.98749
 20
20.8057
 30
0.000000
  70
    32
  0
VERTEX
  8
VISIBLE_NARROW__ISO_
  5
405
 10
7.98401
 20
20.8035
 30
0.000000
  70
    32
  0
VERTEX
  8
VISIBLE_NARROW__ISO_
  5
406
 10
7.98053
 20
20.8013
 30
0.000000
  70
    32
  0
VERTEX
  8
VISIBLE_NARROW__ISO_
  5
407
 10
7.97707
 20
20.7991
 30
0.000000
  70
    32
  0
VERTEX
  8
VISIBLE_NARROW__ISO_
  5
408
 10
7.97361
 20
20.7969
 30
0.000000
  70
    32
  0
VERTEX
  8
VISIBLE_NARROW__ISO_
  5
409
 10
7.97016
 20
20.7947
 30
0.000000
  70
    32
  0
VERTEX
  8
VISIBLE_NARROW__ISO_
  5
40A
 10
7.96671
 20
20.7925
 30
0.000000
  70
    32
  0
VERTEX
  8
VISIBLE_NARROW__ISO_
  5
40B
 10
7.96327
 20
20.7903
 30
0.000000
  70
    32
  0
VERTEX
  8
VISIBLE_NARROW__ISO_
  5
40C
 10
7.95984
 20
20.7880
 30
0.000000
  70
    32
  0
VERTEX
  8
VISIBLE_NARROW__ISO_
  5
40D
 10
7.95641
 20
20.7858
 30
0.000000
  70
    32
  0
VERTEX
  8
VISIBLE_NARROW__ISO_
  5
40E
 10
7.95299
 20
20.7835
 30
0.000000
  70
    32
  0
VERTEX
  8
VISIBLE_NARROW__ISO_
  5
40F
 10
7.94958
 20
20.7812
 30
0.000000
  70
    32
  0
VERTEX
  8
VISIBLE_NARROW__ISO_
  5
410
 10
7.94618
 20
20.7789
 30
0.000000
  70
    32
  0
VERTEX
  8
VISIBLE_NARROW__ISO_
  5
411
 10
7.94278
 20
20.7766
 30
0.000000
  70
    32
  0
VERTEX
  8
VISIBLE_NARROW__ISO_
  5
412
 10
7.93939
 20
20.7743
 30
0.000000
  70
    32
  0
VERTEX
  8
VISIBLE_NARROW__ISO_
  5
413
 10
7.93601
 20
20.7720
 30
0.000000
  70
    32
  0
VERTEX
  8
VISIBLE_NARROW__ISO_
  5
414
 10
7.93263
 20
20.7697
 30
0.000000
  70
    32
  0
VERTEX
  8
VISIBLE_NARROW__ISO_
  5
415
 10
7.92926
 20
20.7674
 30
0.000000
  70
    32
  0
VERTEX
  8
VISIBLE_NARROW__ISO_
  5
416
 10
7.92590
 20
20.7650
 30
0.000000
  70
    32
  0
VERTEX
  8
VISIBLE_NARROW__ISO_
  5
417
 10
7.92255
 20
20.7626
 30
0.000000
  70
    32
  0
VERTEX
  8
VISIBLE_NARROW__ISO_
  5
418
 10
7.91920
 20
20.7603
 30
0.000000
  70
    32
  0
VERTEX
  8
VISIBLE_NARROW__ISO_
  5
419
 10
7.91586
 20
20.7579
 30
0.000000
  70
    32
  0
VERTEX
  8
VISIBLE_NARROW__ISO_
  5
41A
 10
7.91253
 20
20.7555
 30
0.000000
  70
    32
  0
VERTEX
  8
VISIBLE_NARROW__ISO_
  5
41B
 10
7.90920
 20
20.7531
 30
0.000000
  70
    32
  0
VERTEX
  8
VISIBLE_NARROW__ISO_
  5
41C
 10
7.90588
 20
20.7507
 30
0.000000
  70
    32
  0
VERTEX
  8
VISIBLE_NARROW__ISO_
  5
41D
 10
7.90257
 20
20.7483
 30
0.000000
  70
    32
  0
VERTEX
  8
VISIBLE_NARROW__ISO_
  5
41E
 10
7.89927
 20
20.7458
 30
0.000000
  70
    32
  0
VERTEX
  8
VISIBLE_NARROW__ISO_
  5
41F
 10
7.89597
 20
20.7434
 30
0.000000
  70
    32
  0
VERTEX
  8
VISIBLE_NARROW__ISO_
  5
420
 10
7.89269
 20
20.7410
 30
0.000000
  70
    32
  0
VERTEX
  8
VISIBLE_NARROW__ISO_
  5
421
 10
7.88940
 20
20.7385
 30
0.000000
  70
    32
  0
VERTEX
  8
VISIBLE_NARROW__ISO_
  5
422
 10
7.88613
 20
20.7360
 30
0.000000
  70
    32
  0
VERTEX
  8
VISIBLE_NARROW__ISO_
  5
423
 10
7.88287
 20
20.7335
 30
0.000000
  70
    32
  0
VERTEX
  8
VISIBLE_NARROW__ISO_
  5
424
 10
7.87961
 20
20.7310
 30
0.000000
  70
    32
  0
VERTEX
  8
VISIBLE_NARROW__ISO_
  5
425
 10
7.87636
 20
20.7285
 30
0.000000
  70
    32
  0
VERTEX
  8
VISIBLE_NARROW__ISO_
  5
426
 10
7.87312
 20
20.7260
 30
0.000000
  70
    32
  0
VERTEX
  8
VISIBLE_NARROW__ISO_
  5
427
 10
7.86988
 20
20.7235
 30
0.000000
  70
    32
  0
VERTEX
  8
VISIBLE_NARROW__ISO_
  5
428
 10
7.86666
 20
20.7210
 30
0.000000
  70
    32
  0
VERTEX
  8
VISIBLE_NARROW__ISO_
  5
429
 10
7.86344
 20
20.7184
 30
0.000000
  70
    32
  0
VERTEX
  8
VISIBLE_NARROW__ISO_
  5
42A
 10
7.86023
 20
20.7159
 30
0.000000
  70
    32
  0
VERTEX
  8
VISIBLE_NARROW__ISO_
  5
42B
 10
7.85702
 20
20.7133
 30
0.000000
  70
    32
  0
VERTEX
  8
VISIBLE_NARROW__ISO_
  5
42C
 10
7.85383
 20
20.7108
 30
0.000000
  70
    32
  0
VERTEX
  8
VISIBLE_NARROW__ISO_
  5
42D
 10
7.85064
 20
20.7082
 30
0.000000
  70
    32
  0
VERTEX
  8
VISIBLE_NARROW__ISO_
  5
42E
 10
7.84746
 20
20.7056
 30
0.000000
  70
    32
  0
VERTEX
  8
VISIBLE_NARROW__ISO_
  5
42F
 10
7.84429
 20
20.7030
 30
0.000000
  70
    32
  0
VERTEX
  8
VISIBLE_NARROW__ISO_
  5
430
 10
7.84113
 20
20.7004
 30
0.000000
  70
    32
  0
VERTEX
  8
VISIBLE_NARROW__ISO_
  5
431
 10
7.83797
 20
20.6978
 30
0.000000
  70
    32
  0
VERTEX
  8
VISIBLE_NARROW__ISO_
  5
432
 10
7.83482
 20
20.6951
 30
0.000000
  70
    32
  0
VERTEX
  8
VISIBLE_NARROW__ISO_
  5
433
 10
7.83168
 20
20.6925
 30
0.000000
  70
    32
  0
VERTEX
  8
VISIBLE_NARROW__ISO_
  5
434
 10
7.82855
 20
20.6898
 30
0.000000
  70
    32
  0
VERTEX
  8
VISIBLE_NARROW__ISO_
  5
435
 10
7.82543
 20
20.6872
 30
0.000000
  70
    32
  0
VERTEX
  8
VISIBLE_NARROW__ISO_
  5
436
 10
7.82232
 20
20.6845
 30
0.000000
  70
    32
  0
VERTEX
  8
VISIBLE_NARROW__ISO_
  5
437
 10
7.81921
 20
20.6818
 30
0.000000
  70
    32
  0
VERTEX
  8
VISIBLE_NARROW__ISO_
  5
438
 10
7.81611
 20
20.6791
 30
0.000000
  70
    32
  0
VERTEX
  8
VISIBLE_NARROW__ISO_
  5
439
 10
7.81302
 20
20.6765
 30
0.000000
  70
    32
  0
VERTEX
  8
VISIBLE_NARROW__ISO_
  5
43A
 10
7.80994
 20
20.6737
 30
0.000000
  70
    32
  0
VERTEX
  8
VISIBLE_NARROW__ISO_
  5
43B
 10
7.80687
 20
20.6710
 30
0.000000
  70
    32
  0
VERTEX
  8
VISIBLE_NARROW__ISO_
  5
43C
 10
7.80381
 20
20.6683
 30
0.000000
  70
    32
  0
VERTEX
  8
VISIBLE_NARROW__ISO_
  5
43D
 10
7.80075
 20
20.6656
 30
0.000000
  70
    32
  0
VERTEX
  8
VISIBLE_NARROW__ISO_
  5
43E
 10
7.79770
 20
20.6628
 30
0.000000
  70
    32
  0
VERTEX
  8
VISIBLE_NARROW__ISO_
  5
43F
 10
7.79466
 20
20.6601
 30
0.000000
  70
    32
  0
VERTEX
  8
VISIBLE_NARROW__ISO_
  5
440
 10
7.79163
 20
20.6573
 30
0.000000
  70
    32
  0
VERTEX
  8
VISIBLE_NARROW__ISO_
  5
441
 10
7.78861
 20
20.6545
 30
0.000000
  70
    32
  0
VERTEX
  8
VISIBLE_NARROW__ISO_
  5
442
 10
7.78560
 20
20.6518
 30
0.000000
  70
    32
  0
VERTEX
  8
VISIBLE_NARROW__ISO_
  5
443
 10
7.78259
 20
20.6490
 30
0.000000
  70
    32
  0
VERTEX
  8
VISIBLE_NARROW__ISO_
  5
444
 10
7.77960
 20
20.6462
 30
0.000000
  70
    32
  0
VERTEX
  8
VISIBLE_NARROW__ISO_
  5
445
 10
7.77661
 20
20.6433
 30
0.000000
  70
    32
  0
VERTEX
  8
VISIBLE_NARROW__ISO_
  5
446
 10
7.77363
 20
20.6405
 30
0.000000
  70
    32
  0
VERTEX
  8
VISIBLE_NARROW__ISO_
  5
447
 10
7.77066
 20
20.6377
 30
0.000000
  70
    32
  0
VERTEX
  8
VISIBLE_NARROW__ISO_
  5
448
 10
7.76770
 20
20.6349
 30
0.000000
  70
    32
  0
VERTEX
  8
VISIBLE_NARROW__ISO_
  5
449
 10
7.76475
 20
20.6320
 30
0.000000
  70
    32
  0
VERTEX
  8
VISIBLE_NARROW__ISO_
  5
44A
 10
7.76180
 20
20.6292
 30
0.000000
  70
    32
  0
VERTEX
  8
VISIBLE_NARROW__ISO_
  5
44B
 10
7.75887
 20
20.6263
 30
0.000000
  70
    32
  0
VERTEX
  8
VISIBLE_NARROW__ISO_
  5
44C
 10
7.75594
 20
20.6234
 30
0.000000
  70
    32
  0
VERTEX
  8
VISIBLE_NARROW__ISO_
  5
44D
 10
7.75303
 20
20.6205
 30
0.000000
  70
    32
  0
VERTEX
  8
VISIBLE_NARROW__ISO_
  5
44E
 10
7.75012
 20
20.6177
 30
0.000000
  70
    32
  0
VERTEX
  8
VISIBLE_NARROW__ISO_
  5
44F
 10
7.74722
 20
20.6148
 30
0.000000
  70
    32
  0
VERTEX
  8
VISIBLE_NARROW__ISO_
  5
450
 10
7.74433
 20
20.6118
 30
0.000000
  70
    32
  0
VERTEX
  8
VISIBLE_NARROW__ISO_
  5
451
 10
7.74145
 20
20.6089
 30
0.000000
  70
    32
  0
VERTEX
  8
VISIBLE_NARROW__ISO_
  5
452
 10
7.73857
 20
20.6060
 30
0.000000
  70
    32
  0
VERTEX
  8
VISIBLE_NARROW__ISO_
  5
453
 10
7.73571
 20
20.6031
 30
0.000000
  70
    32
  0
VERTEX
  8
VISIBLE_NARROW__ISO_
  5
454
 10
7.73286
 20
20.6001
 30
0.000000
  70
    32
  0
VERTEX
  8
VISIBLE_NARROW__ISO_
  5
455
 10
7.73001
 20
20.5972
 30
0.000000
  70
    32
  0
VERTEX
  8
VISIBLE_NARROW__ISO_
  5
456
 10
7.72717
 20
20.5942
 30
0.000000
  70
    32
  0
VERTEX
  8
VISIBLE_NARROW__ISO_
  5
457
 10
7.72435
 20
20.5912
 30
0.000000
  70
    32
  0
VERTEX
  8
VISIBLE_NARROW__ISO_
  5
458
 10
7.72153
 20
20.5883
 30
0.000000
  70
    32
  0
VERTEX
  8
VISIBLE_NARROW__ISO_
  5
459
 10
7.71872
 20
20.5853
 30
0.000000
  70
    32
  0
VERTEX
  8
VISIBLE_NARROW__ISO_
  5
45A
 10
7.71592
 20
20.5823
 30
0.000000
  70
    32
  0
VERTEX
  8
VISIBLE_NARROW__ISO_
  5
45B
 10
7.71313
 20
20.5793
 30
0.000000
  70
    32
  0
VERTEX
  8
VISIBLE_NARROW__ISO_
  5
45C
 10
7.71035
 20
20.5762
 30
0.000000
  70
    32
  0
VERTEX
  8
VISIBLE_NARROW__ISO_
  5
45D
 10
7.70758
 20
20.5732
 30
0.000000
  70
    32
  0
VERTEX
  8
VISIBLE_NARROW__ISO_
  5
45E
 10
7.70481
 20
20.5702
 30
0.000000
  70
    32
  0
VERTEX
  8
VISIBLE_NARROW__ISO_
  5
45F
 10
7.70206
 20
20.5672
 30
0.000000
  70
    32
  0
VERTEX
  8
VISIBLE_NARROW__ISO_
  5
460
 10
7.69931
 20
20.5641
 30
0.000000
  70
    32
  0
VERTEX
  8
VISIBLE_NARROW__ISO_
  5
461
 10
7.69658
 20
20.5611
 30
0.000000
  70
    32
  0
VERTEX
  8
VISIBLE_NARROW__ISO_
  5
462
 10
7.69385
 20
20.5580
 30
0.000000
  70
    32
  0
VERTEX
  8
VISIBLE_NARROW__ISO_
  5
463
 10
7.69114
 20
20.5549
 30
0.000000
  70
    32
  0
VERTEX
  8
VISIBLE_NARROW__ISO_
  5
464
 10
7.68843
 20
20.5518
 30
0.000000
  70
    32
  0
VERTEX
  8
VISIBLE_NARROW__ISO_
  5
465
 10
7.68574
 20
20.5487
 30
0.000000
  70
    32
  0
VERTEX
  8
VISIBLE_NARROW__ISO_
  5
466
 10
7.68305
 20
20.5456
 30
0.000000
  70
    32
  0
VERTEX
  8
VISIBLE_NARROW__ISO_
  5
467
 10
7.68037
 20
20.5425
 30
0.000000
  70
    32
  0
VERTEX
  8
VISIBLE_NARROW__ISO_
  5
468
 10
7.67770
 20
20.5394
 30
0.000000
  70
    32
  0
VERTEX
  8
VISIBLE_NARROW__ISO_
  5
469
 10
7.67504
 20
20.5363
 30
0.000000
  70
    32
  0
VERTEX
  8
VISIBLE_NARROW__ISO_
  5
46A
 10
7.67239
 20
20.5332
 30
0.000000
  70
    32
  0
VERTEX
  8
VISIBLE_NARROW__ISO_
  5
46B
 10
7.66975
 20
20.5300
 30
0.000000
  70
    32
  0
VERTEX
  8
VISIBLE_NARROW__ISO_
  5
46C
 10
7.66712
 20
20.5269
 30
0.000000
  70
    32
  0
VERTEX
  8
VISIBLE_NARROW__ISO_
  5
46D
 10
7.66450
 20
20.5237
 30
0.000000
  70
    32
  0
VERTEX
  8
VISIBLE_NARROW__ISO_
  5
46E
 10
7.66189
 20
20.5206
 30
0.000000
  70
    32
  0
VERTEX
  8
VISIBLE_NARROW__ISO_
  5
46F
 10
7.65929
 20
20.5174
 30
0.000000
  70
    32
  0
VERTEX
  8
VISIBLE_NARROW__ISO_
  5
470
 10
7.65670
 20
20.5142
 30
0.000000
  70
    32
  0
VERTEX
  8
VISIBLE_NARROW__ISO_
  5
471
 10
7.65412
 20
20.5110
 30
0.000000
  70
    32
  0
VERTEX
  8
VISIBLE_NARROW__ISO_
  5
472
 10
7.65155
 20
20.5078
 30
0.000000
  70
    32
  0
VERTEX
  8
VISIBLE_NARROW__ISO_
  5
473
 10
7.64899
 20
20.5046
 30
0.000000
  70
    32
  0
VERTEX
  8
VISIBLE_NARROW__ISO_
  5
474
 10
7.64643
 20
20.5014
 30
0.000000
  70
    32
  0
VERTEX
  8
VISIBLE_NARROW__ISO_
  5
475
 10
7.64389
 20
20.4982
 30
0.000000
  70
    32
  0
VERTEX
  8
VISIBLE_NARROW__ISO_
  5
476
 10
7.64136
 20
20.4950
 30
0.000000
  70
    32
  0
VERTEX
  8
VISIBLE_NARROW__ISO_
  5
477
 10
7.63884
 20
20.4917
 30
0.000000
  70
    32
  0
VERTEX
  8
VISIBLE_NARROW__ISO_
  5
478
 10
7.63632
 20
20.4885
 30
0.000000
  70
    32
  0
VERTEX
  8
VISIBLE_NARROW__ISO_
  5
479
 10
7.63382
 20
20.4853
 30
0.000000
  70
    32
  0
VERTEX
  8
VISIBLE_NARROW__ISO_
  5
47A
 10
7.63133
 20
20.4820
 30
0.000000
  70
    32
  0
VERTEX
  8
VISIBLE_NARROW__ISO_
  5
47B
 10
7.62885
 20
20.4787
 30
0.000000
  70
    32
  0
VERTEX
  8
VISIBLE_NARROW__ISO_
  5
47C
 10
7.62638
 20
20.4755
 30
0.000000
  70
    32
  0
VERTEX
  8
VISIBLE_NARROW__ISO_
  5
47D
 10
7.62391
 20
20.4722
 30
0.000000
  70
    32
  0
VERTEX
  8
VISIBLE_NARROW__ISO_
  5
47E
 10
7.62146
 20
20.4689
 30
0.000000
  70
    32
  0
VERTEX
  8
VISIBLE_NARROW__ISO_
  5
47F
 10
7.61902
 20
20.4656
 30
0.000000
  70
    32
  0
VERTEX
  8
VISIBLE_NARROW__ISO_
  5
480
 10
7.61659
 20
20.4623
 30
0.000000
  70
    32
  0
VERTEX
  8
VISIBLE_NARROW__ISO_
  5
481
 10
7.61417
 20
20.4590
 30
0.000000
  70
    32
  0
VERTEX
  8
VISIBLE_NARROW__ISO_
  5
482
 10
7.61176
 20
20.4557
 30
0.000000
  70
    32
  0
VERTEX
  8
VISIBLE_NARROW__ISO_
  5
483
 10
7.60935
 20
20.4523
 30
0.000000
  70
    32
  0
VERTEX
  8
VISIBLE_NARROW__ISO_
  5
484
 10
7.60696
 20
20.4490
 30
0.000000
  70
    32
  0
VERTEX
  8
VISIBLE_NARROW__ISO_
  5
485
 10
7.60458
 20
20.4457
 30
0.000000
  70
    32
  0
VERTEX
  8
VISIBLE_NARROW__ISO_
  5
486
 10
7.60221
 20
20.4423
 30
0.000000
  70
    32
  0
VERTEX
  8
VISIBLE_NARROW__ISO_
  5
487
 10
7.59985
 20
20.4390
 30
0.000000
  70
    32
  0
VERTEX
  8
VISIBLE_NARROW__ISO_
  5
488
 10
7.59750
 20
20.4356
 30
0.000000
  70
    32
  0
VERTEX
  8
VISIBLE_NARROW__ISO_
  5
489
 10
7.59517
 20
20.4322
 30
0.000000
  70
    32
  0
VERTEX
  8
VISIBLE_NARROW__ISO_
  5
48A
 10
7.59284
 20
20.4289
 30
0.000000
  70
    32
  0
VERTEX
  8
VISIBLE_NARROW__ISO_
  5
48B
 10
7.59052
 20
20.4255
 30
0.000000
  70
    32
  0
VERTEX
  8
VISIBLE_NARROW__ISO_
  5
48C
 10
7.58821
 20
20.4221
 30
0.000000
  70
    32
  0
VERTEX
  8
VISIBLE_NARROW__ISO_
  5
48D
 10
7.58591
 20
20.4187
 30
0.000000
  70
    32
  0
VERTEX
  8
VISIBLE_NARROW__ISO_
  5
48E
 10
7.58363
 20
20.4153
 30
0.000000
  70
    32
  0
VERTEX
  8
VISIBLE_NARROW__ISO_
  5
48F
 10
7.58135
 20
20.4119
 30
0.000000
  70
    32
  0
VERTEX
  8
VISIBLE_NARROW__ISO_
  5
490
 10
7.57909
 20
20.4085
 30
0.000000
  70
    32
  0
VERTEX
  8
VISIBLE_NARROW__ISO_
  5
491
 10
7.57683
 20
20.4050
 30
0.000000
  70
    32
  0
VERTEX
  8
VISIBLE_NARROW__ISO_
  5
492
 10
7.57459
 20
20.4016
 30
0.000000
  70
    32
  0
VERTEX
  8
VISIBLE_NARROW__ISO_
  5
493
 10
7.57235
 20
20.3982
 30
0.000000
  70
    32
  0
VERTEX
  8
VISIBLE_NARROW__ISO_
  5
494
 10
7.57013
 20
20.3947
 30
0.000000
  70
    32
  0
VERTEX
  8
VISIBLE_NARROW__ISO_
  5
495
 10
7.56792
 20
20.3913
 30
0.000000
  70
    32
  0
VERTEX
  8
VISIBLE_NARROW__ISO_
  5
496
 10
7.56572
 20
20.3878
 30
0.000000
  70
    32
  0
VERTEX
  8
VISIBLE_NARROW__ISO_
  5
497
 10
7.56352
 20
20.3843
 30
0.000000
  70
    32
  0
VERTEX
  8
VISIBLE_NARROW__ISO_
  5
498
 10
7.56134
 20
20.3809
 30
0.000000
  70
    32
  0
VERTEX
  8
VISIBLE_NARROW__ISO_
  5
499
 10
7.55917
 20
20.3774
 30
0.000000
  70
    32
  0
VERTEX
  8
VISIBLE_NARROW__ISO_
  5
49A
 10
7.55702
 20
20.3739
 30
0.000000
  70
    32
  0
VERTEX
  8
VISIBLE_NARROW__ISO_
  5
49B
 10
7.55487
 20
20.3704
 30
0.000000
  70
    32
  0
VERTEX
  8
VISIBLE_NARROW__ISO_
  5
49C
 10
7.55273
 20
20.3669
 30
0.000000
  70
    32
  0
VERTEX
  8
VISIBLE_NARROW__ISO_
  5
49D
 10
7.55060
 20
20.3634
 30
0.000000
  70
    32
  0
VERTEX
  8
VISIBLE_NARROW__ISO_
  5
49E
 10
7.54849
 20
20.3599
 30
0.000000
  70
    32
  0
VERTEX
  8
VISIBLE_NARROW__ISO_
  5
49F
 10
7.54638
 20
20.3564
 30
0.000000
  70
    32
  0
VERTEX
  8
VISIBLE_NARROW__ISO_
  5
4A0
 10
7.54429
 20
20.3528
 30
0.000000
  70
    32
  0
VERTEX
  8
VISIBLE_NARROW__ISO_
  5
4A1
 10
7.54221
 20
20.3493
 30
0.000000
  70
    32
  0
VERTEX
  8
VISIBLE_NARROW__ISO_
  5
4A2
 10
7.54014
 20
20.3458
 30
0.000000
  70
    32
  0
VERTEX
  8
VISIBLE_NARROW__ISO_
  5
4A3
 10
7.53807
 20
20.3422
 30
0.000000
  70
    32
  0
VERTEX
  8
VISIBLE_NARROW__ISO_
  5
4A4
 10
7.53602
 20
20.3387
 30
0.000000
  70
    32
  0
VERTEX
  8
VISIBLE_NARROW__ISO_
  5
4A5
 10
7.53398
 20
20.3351
 30
0.000000
  70
    32
  0
VERTEX
  8
VISIBLE_NARROW__ISO_
  5
4A6
 10
7.53196
 20
20.3316
 30
0.000000
  70
    32
  0
VERTEX
  8
VISIBLE_NARROW__ISO_
  5
4A7
 10
7.52994
 20
20.3280
 30
0.000000
  70
    32
  0
VERTEX
  8
VISIBLE_NARROW__ISO_
  5
4A8
 10
7.52793
 20
20.3244
 30
0.000000
  70
    32
  0
VERTEX
  8
VISIBLE_NARROW__ISO_
  5
4A9
 10
7.52594
 20
20.3208
 30
0.000000
  70
    32
  0
VERTEX
  8
VISIBLE_NARROW__ISO_
  5
4AA
 10
7.52395
 20
20.3172
 30
0.000000
  70
    32
  0
VERTEX
  8
VISIBLE_NARROW__ISO_
  5
4AB
 10
7.52198
 20
20.3136
 30
0.000000
  70
    32
  0
VERTEX
  8
VISIBLE_NARROW__ISO_
  5
4AC
 10
7.52002
 20
20.3100
 30
0.000000
  70
    32
  0
VERTEX
  8
VISIBLE_NARROW__ISO_
  5
4AD
 10
7.51806
 20
20.3064
 30
0.000000
  70
    32
  0
VERTEX
  8
VISIBLE_NARROW__ISO_
  5
4AE
 10
7.51612
 20
20.3028
 30
0.000000
  70
    32
  0
VERTEX
  8
VISIBLE_NARROW__ISO_
  5
4AF
 10
7.51420
 20
20.2992
 30
0.000000
  70
    32
  0
VERTEX
  8
VISIBLE_NARROW__ISO_
  5
4B0
 10
7.51228
 20
20.2956
 30
0.000000
  70
    32
  0
VERTEX
  8
VISIBLE_NARROW__ISO_
  5
4B1
 10
7.51037
 20
20.2919
 30
0.000000
  70
    32
  0
VERTEX
  8
VISIBLE_NARROW__ISO_
  5
4B2
 10
7.50847
 20
20.2883
 30
0.000000
  70
    32
  0
VERTEX
  8
VISIBLE_NARROW__ISO_
  5
4B3
 10
7.50659
 20
20.2847
 30
0.000000
  70
    32
  0
VERTEX
  8
VISIBLE_NARROW__ISO_
  5
4B4
 10
7.50472
 20
20.2810
 30
0.000000
  70
    32
  0
VERTEX
  8
VISIBLE_NARROW__ISO_
  5
4B5
 10
7.50285
 20
20.2774
 30
0.000000
  70
    32
  0
VERTEX
  8
VISIBLE_NARROW__ISO_
  5
4B6
 10
7.50100
 20
20.2737
 30
0.000000
  70
    32
  0
VERTEX
  8
VISIBLE_NARROW__ISO_
  5
4B7
 10
7.49916
 20
20.2700
 30
0.000000
  70
    32
  0
VERTEX
  8
VISIBLE_NARROW__ISO_
  5
4B8
 10
7.49734
 20
20.2664
 30
0.000000
  70
    32
  0
VERTEX
  8
VISIBLE_NARROW__ISO_
  5
4B9
 10
7.49552
 20
20.2627
 30
0.000000
  70
    32
  0
VERTEX
  8
VISIBLE_NARROW__ISO_
  5
4BA
 10
7.49371
 20
20.2590
 30
0.000000
  70
    32
  0
VERTEX
  8
VISIBLE_NARROW__ISO_
  5
4BB
 10
7.49192
 20
20.2553
 30
0.000000
  70
    32
  0
VERTEX
  8
VISIBLE_NARROW__ISO_
  5
4BC
 10
7.49014
 20
20.2516
 30
0.000000
  70
    32
  0
VERTEX
  8
VISIBLE_NARROW__ISO_
  5
4BD
 10
7.48836
 20
20.2479
 30
0.000000
  70
    32
  0
VERTEX
  8
VISIBLE_NARROW__ISO_
  5
4BE
 10
7.48660
 20
20.2442
 30
0.000000
  70
    32
  0
VERTEX
  8
VISIBLE_NARROW__ISO_
  5
4BF
 10
7.48485
 20
20.2405
 30
0.000000
  70
    32
  0
VERTEX
  8
VISIBLE_NARROW__ISO_
  5
4C0
 10
7.48312
 20
20.2368
 30
0.000000
  70
    32
  0
VERTEX
  8
VISIBLE_NARROW__ISO_
  5
4C1
 10
7.48139
 20
20.2331
 30
0.000000
  70
    32
  0
VERTEX
  8
VISIBLE_NARROW__ISO_
  5
4C2
 10
7.47967
 20
20.2294
 30
0.000000
  70
    32
  0
VERTEX
  8
VISIBLE_NARROW__ISO_
  5
4C3
 10
7.47797
 20
20.2256
 30
0.000000
  70
    32
  0
VERTEX
  8
VISIBLE_NARROW__ISO_
  5
4C4
 10
7.47628
 20
20.2219
 30
0.000000
  70
    32
  0
VERTEX
  8
VISIBLE_NARROW__ISO_
  5
4C5
 10
7.47460
 20
20.2182
 30
0.000000
  70
    32
  0
VERTEX
  8
VISIBLE_NARROW__ISO_
  5
4C6
 10
7.47293
 20
20.2144
 30
0.000000
  70
    32
  0
VERTEX
  8
VISIBLE_NARROW__ISO_
  5
4C7
 10
7.47127
 20
20.2107
 30
0.000000
  70
    32
  0
VERTEX
  8
VISIBLE_NARROW__ISO_
  5
4C8
 10
7.46963
 20
20.2069
 30
0.000000
  70
    32
  0
VERTEX
  8
VISIBLE_NARROW__ISO_
  5
4C9
 10
7.46799
 20
20.2031
 30
0.000000
  70
    32
  0
VERTEX
  8
VISIBLE_NARROW__ISO_
  5
4CA
 10
7.46637
 20
20.1994
 30
0.000000
  70
    32
  0
VERTEX
  8
VISIBLE_NARROW__ISO_
  5
4CB
 10
7.46476
 20
20.1956
 30
0.000000
  70
    32
  0
VERTEX
  8
VISIBLE_NARROW__ISO_
  5
4CC
 10
7.46316
 20
20.1918
 30
0.000000
  70
    32
  0
VERTEX
  8
VISIBLE_NARROW__ISO_
  5
4CD
 10
7.46157
 20
20.1881
 30
0.000000
  70
    32
  0
VERTEX
  8
VISIBLE_NARROW__ISO_
  5
4CE
 10
7.45999
 20
20.1843
 30
0.000000
  70
    32
  0
VERTEX
  8
VISIBLE_NARROW__ISO_
  5
4CF
 10
7.45843
 20
20.1805
 30
0.000000
  70
    32
  0
VERTEX
  8
VISIBLE_NARROW__ISO_
  5
4D0
 10
7.45687
 20
20.1767
 30
0.000000
  70
    32
  0
VERTEX
  8
VISIBLE_NARROW__ISO_
  5
4D1
 10
7.45533
 20
20.1729
 30
0.000000
  70
    32
  0
VERTEX
  8
VISIBLE_NARROW__ISO_
  5
4D2
 10
7.45380
 20
20.1691
 30
0.000000
  70
    32
  0
VERTEX
  8
VISIBLE_NARROW__ISO_
  5
4D3
 10
7.45228
 20
20.1653
 30
0.000000
  70
    32
  0
VERTEX
  8
VISIBLE_NARROW__ISO_
  5
4D4
 10
7.45078
 20
20.1615
 30
0.000000
  70
    32
  0
VERTEX
  8
VISIBLE_NARROW__ISO_
  5
4D5
 10
7.44928
 20
20.1576
 30
0.000000
  70
    32
  0
VERTEX
  8
VISIBLE_NARROW__ISO_
  5
4D6
 10
7.44780
 20
20.1538
 30
0.000000
  70
    32
  0
VERTEX
  8
VISIBLE_NARROW__ISO_
  5
4D7
 10
7.44633
 20
20.1500
 30
0.000000
  70
    32
  0
VERTEX
  8
VISIBLE_NARROW__ISO_
  5
4D8
 10
7.44487
 20
20.1462
 30
0.000000
  70
    32
  0
VERTEX
  8
VISIBLE_NARROW__ISO_
  5
4D9
 10
7.44342
 20
20.1423
 30
0.000000
  70
    32
  0
VERTEX
  8
VISIBLE_NARROW__ISO_
  5
4DA
 10
7.44198
 20
20.1385
 30
0.000000
  70
    32
  0
VERTEX
  8
VISIBLE_NARROW__ISO_
  5
4DB
 10
7.44056
 20
20.1346
 30
0.000000
  70
    32
  0
VERTEX
  8
VISIBLE_NARROW__ISO_
  5
4DC
 10
7.43915
 20
20.1308
 30
0.000000
  70
    32
  0
VERTEX
  8
VISIBLE_NARROW__ISO_
  5
4DD
 10
7.43775
 20
20.1269
 30
0.000000
  70
    32
  0
VERTEX
  8
VISIBLE_NARROW__ISO_
  5
4DE
 10
7.43636
 20
20.1231
 30
0.000000
  70
    32
  0
VERTEX
  8
VISIBLE_NARROW__ISO_
  5
4DF
 10
7.43498
 20
20.1192
 30
0.000000
  70
    32
  0
VERTEX
  8
VISIBLE_NARROW__ISO_
  5
4E0
 10
7.43362
 20
20.1153
 30
0.000000
  70
    32
  0
VERTEX
  8
VISIBLE_NARROW__ISO_
  5
4E1
 10
7.43226
 20
20.1115
 30
0.000000
  70
    32
  0
VERTEX
  8
VISIBLE_NARROW__ISO_
  5
4E2
 10
7.43092
 20
20.1076
 30
0.000000
  70
    32
  0
VERTEX
  8
VISIBLE_NARROW__ISO_
  5
4E3
 10
7.42960
 20
20.1037
 30
0.000000
  70
    32
  0
VERTEX
  8
VISIBLE_NARROW__ISO_
  5
4E4
 10
7.42828
 20
20.0998
 30
0.000000
  70
    32
  0
VERTEX
  8
VISIBLE_NARROW__ISO_
  5
4E5
 10
7.42697
 20
20.0959
 30
0.000000
  70
    32
  0
VERTEX
  8
VISIBLE_NARROW__ISO_
  5
4E6
 10
7.42568
 20
20.0921
 30
0.000000
  70
    32
  0
VERTEX
  8
VISIBLE_NARROW__ISO_
  5
4E7
 10
7.42440
 20
20.0882
 30
0.000000
  70
    32
  0
VERTEX
  8
VISIBLE_NARROW__ISO_
  5
4E8
 10
7.42313
 20
20.0843
 30
0.000000
  70
    32
  0
VERTEX
  8
VISIBLE_NARROW__ISO_
  5
4E9
 10
7.42187
 20
20.0804
 30
0.000000
  70
    32
  0
VERTEX
  8
VISIBLE_NARROW__ISO_
  5
4EA
 10
7.42063
 20
20.0764
 30
0.000000
  70
    32
  0
VERTEX
  8
VISIBLE_NARROW__ISO_
  5
4EB
 10
7.41940
 20
20.0725
 30
0.000000
  70
    32
  0
VERTEX
  8
VISIBLE_NARROW__ISO_
  5
4EC
 10
7.41818
 20
20.0686
 30
0.000000
  70
    32
  0
VERTEX
  8
VISIBLE_NARROW__ISO_
  5
4ED
 10
7.41697
 20
20.0647
 30
0.000000
  70
    32
  0
VERTEX
  8
VISIBLE_NARROW__ISO_
  5
4EE
 10
7.41577
 20
20.0608
 30
0.000000
  70
    32
  0
VERTEX
  8
VISIBLE_NARROW__ISO_
  5
4EF
 10
7.41459
 20
20.0569
 30
0.000000
  70
    32
  0
VERTEX
  8
VISIBLE_NARROW__ISO_
  5
4F0
 10
7.41342
 20
20.0529
 30
0.000000
  70
    32
  0
VERTEX
  8
VISIBLE_NARROW__ISO_
  5
4F1
 10
7.41226
 20
20.0490
 30
0.000000
  70
    32
  0
VERTEX
  8
VISIBLE_NARROW__ISO_
  5
4F2
 10
7.41111
 20
20.0451
 30
0.000000
  70
    32
  0
VERTEX
  8
VISIBLE_NARROW__ISO_
  5
4F3
 10
7.40997
 20
20.0411
 30
0.000000
  70
    32
  0
VERTEX
  8
VISIBLE_NARROW__ISO_
  5
4F4
 10
7.40885
 20
20.0372
 30
0.000000
  70
    32
  0
VERTEX
  8
VISIBLE_NARROW__ISO_
  5
4F5
 10
7.40774
 20
20.0332
 30
0.000000
  70
    32
  0
VERTEX
  8
VISIBLE_NARROW__ISO_
  5
4F6
 10
7.40664
 20
20.0293
 30
0.000000
  70
    32
  0
VERTEX
  8
VISIBLE_NARROW__ISO_
  5
4F7
 10
7.40555
 20
20.0253
 30
0.000000
  70
    32
  0
VERTEX
  8
VISIBLE_NARROW__ISO_
  5
4F8
 10
7.40448
 20
20.0214
 30
0.000000
  70
    32
  0
VERTEX
  8
VISIBLE_NARROW__ISO_
  5
4F9
 10
7.40342
 20
20.0174
 30
0.000000
  70
    32
  0
VERTEX
  8
VISIBLE_NARROW__ISO_
  5
4FA
 10
7.40237
 20
20.0134
 30
0.000000
  70
    32
  0
VERTEX
  8
VISIBLE_NARROW__ISO_
  5
4FB
 10
7.40133
 20
20.0095
 30
0.000000
  70
    32
  0
VERTEX
  8
VISIBLE_NARROW__ISO_
  5
4FC
 10
7.40030
 20
20.0055
 30
0.000000
  70
    32
  0
VERTEX
  8
VISIBLE_NARROW__ISO_
  5
4FD
 10
7.39929
 20
20.0015
 30
0.000000
  70
    32
  0
VERTEX
  8
VISIBLE_NARROW__ISO_
  5
4FE
 10
7.39829
 20
19.9976
 30
0.000000
  70
    32
  0
VERTEX
  8
VISIBLE_NARROW__ISO_
  5
4FF
 10
7.39730
 20
19.9936
 30
0.000000
  70
    32
  0
VERTEX
  8
VISIBLE_NARROW__ISO_
  5
500
 10
7.39632
 20
19.9896
 30
0.000000
  70
    32
  0
VERTEX
  8
VISIBLE_NARROW__ISO_
  5
501
 10
7.39536
 20
19.9856
 30
0.000000
  70
    32
  0
VERTEX
  8
VISIBLE_NARROW__ISO_
  5
502
 10
7.39440
 20
19.9816
 30
0.000000
  70
    32
  0
VERTEX
  8
VISIBLE_NARROW__ISO_
  5
503
 10
7.39346
 20
19.9776
 30
0.000000
  70
    32
  0
VERTEX
  8
VISIBLE_NARROW__ISO_
  5
504
 10
7.39253
 20
19.9736
 30
0.000000
  70
    32
  0
VERTEX
  8
VISIBLE_NARROW__ISO_
  5
505
 10
7.39162
 20
19.9696
 30
0.000000
  70
    32
  0
VERTEX
  8
VISIBLE_NARROW__ISO_
  5
506
 10
7.39071
 20
19.9656
 30
0.000000
  70
    32
  0
VERTEX
  8
VISIBLE_NARROW__ISO_
  5
507
 10
7.38982
 20
19.9616
 30
0.000000
  70
    32
  0
VERTEX
  8
VISIBLE_NARROW__ISO_
  5
508
 10
7.38894
 20
19.9576
 30
0.000000
  70
    32
  0
VERTEX
  8
VISIBLE_NARROW__ISO_
  5
509
 10
7.38808
 20
19.9536
 30
0.000000
  70
    32
  0
VERTEX
  8
VISIBLE_NARROW__ISO_
  5
50A
 10
7.38722
 20
19.9496
 30
0.000000
  70
    32
  0
VERTEX
  8
VISIBLE_NARROW__ISO_
  5
50B
 10
7.38638
 20
19.9456
 30
0.000000
  70
    32
  0
VERTEX
  8
VISIBLE_NARROW__ISO_
  5
50C
 10
7.38555
 20
19.9416
 30
0.000000
  70
    32
  0
VERTEX
  8
VISIBLE_NARROW__ISO_
  5
50D
 10
7.38473
 20
19.9376
 30
0.000000
  70
    32
  0
VERTEX
  8
VISIBLE_NARROW__ISO_
  5
50E
 10
7.38393
 20
19.9336
 30
0.000000
  70
    32
  0
VERTEX
  8
VISIBLE_NARROW__ISO_
  5
50F
 10
7.38313
 20
19.9295
 30
0.000000
  70
    32
  0
VERTEX
  8
VISIBLE_NARROW__ISO_
  5
510
 10
7.38235
 20
19.9255
 30
0.000000
  70
    32
  0
VERTEX
  8
VISIBLE_NARROW__ISO_
  5
511
 10
7.38159
 20
19.9215
 30
0.000000
  70
    32
  0
VERTEX
  8
VISIBLE_NARROW__ISO_
  5
512
 10
7.38083
 20
19.9174
 30
0.000000
  70
    32
  0
VERTEX
  8
VISIBLE_NARROW__ISO_
  5
513
 10
7.38009
 20
19.9134
 30
0.000000
  70
    32
  0
VERTEX
  8
VISIBLE_NARROW__ISO_
  5
514
 10
7.37936
 20
19.9094
 30
0.000000
  70
    32
  0
VERTEX
  8
VISIBLE_NARROW__ISO_
  5
515
 10
7.37864
 20
19.9053
 30
0.000000
  70
    32
  0
VERTEX
  8
VISIBLE_NARROW__ISO_
  5
516
 10
7.37793
 20
19.9013
 30
0.000000
  70
    32
  0
VERTEX
  8
VISIBLE_NARROW__ISO_
  5
517
 10
7.37724
 20
19.8973
 30
0.000000
  70
    32
  0
VERTEX
  8
VISIBLE_NARROW__ISO_
  5
518
 10
7.37655
 20
19.8932
 30
0.000000
  70
    32
  0
VERTEX
  8
VISIBLE_NARROW__ISO_
  5
519
 10
7.37588
 20
19.8892
 30
0.000000
  70
    32
  0
VERTEX
  8
VISIBLE_NARROW__ISO_
  5
51A
 10
7.37523
 20
19.8851
 30
0.000000
  70
    32
  0
VERTEX
  8
VISIBLE_NARROW__ISO_
  5
51B
 10
7.37458
 20
19.8811
 30
0.000000
  70
    32
  0
VERTEX
  8
VISIBLE_NARROW__ISO_
  5
51C
 10
7.37395
 20
19.8770
 30
0.000000
  70
    32
  0
VERTEX
  8
VISIBLE_NARROW__ISO_
  5
51D
 10
7.37333
 20
19.8730
 30
0.000000
  70
    32
  0
VERTEX
  8
VISIBLE_NARROW__ISO_
  5
51E
 10
7.37272
 20
19.8689
 30
0.000000
  70
    32
  0
VERTEX
  8
VISIBLE_NARROW__ISO_
  5
51F
 10
7.37213
 20
19.8649
 30
0.000000
  70
    32
  0
VERTEX
  8
VISIBLE_NARROW__ISO_
  5
520
 10
7.37155
 20
19.8608
 30
0.000000
  70
    32
  0
VERTEX
  8
VISIBLE_NARROW__ISO_
  5
521
 10
7.37098
 20
19.8567
 30
0.000000
  70
    32
  0
VERTEX
  8
VISIBLE_NARROW__ISO_
  5
522
 10
7.37042
 20
19.8527
 30
0.000000
  70
    32
  0
VERTEX
  8
VISIBLE_NARROW__ISO_
  5
523
 10
7.36987
 20
19.8486
 30
0.000000
  70
    32
  0
VERTEX
  8
VISIBLE_NARROW__ISO_
  5
524
 10
7.36934
 20
19.8446
 30
0.000000
  70
    32
  0
VERTEX
  8
VISIBLE_NARROW__ISO_
  5
525
 10
7.36882
 20
19.8405
 30
0.000000
  70
    32
  0
VERTEX
  8
VISIBLE_NARROW__ISO_
  5
526
 10
7.36831
 20
19.8364
 30
0.000000
  70
    32
  0
VERTEX
  8
VISIBLE_NARROW__ISO_
  5
527
 10
7.36782
 20
19.8324
 30
0.000000
  70
    32
  0
VERTEX
  8
VISIBLE_NARROW__ISO_
  5
528
 10
7.36733
 20
19.8283
 30
0.000000
  70
    32
  0
VERTEX
  8
VISIBLE_NARROW__ISO_
  5
529
 10
7.36686
 20
19.8242
 30
0.000000
  70
    32
  0
VERTEX
  8
VISIBLE_NARROW__ISO_
  5
52A
 10
7.36641
 20
19.8201
 30
0.000000
  70
    32
  0
VERTEX
  8
VISIBLE_NARROW__ISO_
  5
52B
 10
7.36596
 20
19.8161
 30
0.000000
  70
    32
  0
VERTEX
  8
VISIBLE_NARROW__ISO_
  5
52C
 10
7.36553
 20
19.8120
 30
0.000000
  70
    32
  0
VERTEX
  8
VISIBLE_NARROW__ISO_
  5
52D
 10
7.36511
 20
19.8079
 30
0.000000
  70
    32
  0
VERTEX
  8
VISIBLE_NARROW__ISO_
  5
52E
 10
7.36470
 20
19.8038
 30
0.000000
  70
    32
  0
VERTEX
  8
VISIBLE_NARROW__ISO_
  5
52F
 10
7.36430
 20
19.7997
 30
0.000000
  70
    32
  0
VERTEX
  8
VISIBLE_NARROW__ISO_
  5
530
 10
7.36392
 20
19.7957
 30
0.000000
  70
    32
  0
VERTEX
  8
VISIBLE_NARROW__ISO_
  5
531
 10
7.36355
 20
19.7916
 30
0.000000
  70
    32
  0
VERTEX
  8
VISIBLE_NARROW__ISO_
  5
532
 10
7.36319
 20
19.7875
 30
0.000000
  70
    32
  0
VERTEX
  8
VISIBLE_NARROW__ISO_
  5
533
 10
7.36285
 20
19.7834
 30
0.000000
  70
    32
  0
VERTEX
  8
VISIBLE_NARROW__ISO_
  5
534
 10
7.36252
 20
19.7793
 30
0.000000
  70
    32
  0
VERTEX
  8
VISIBLE_NARROW__ISO_
  5
535
 10
7.36220
 20
19.7752
 30
0.000000
  70
    32
  0
VERTEX
  8
VISIBLE_NARROW__ISO_
  5
536
 10
7.36189
 20
19.7711
 30
0.000000
  70
    32
  0
VERTEX
  8
VISIBLE_NARROW__ISO_
  5
537
 10
7.36159
 20
19.7671
 30
0.000000
  70
    32
  0
VERTEX
  8
VISIBLE_NARROW__ISO_
  5
538
 10
7.36131
 20
19.7630
 30
0.000000
  70
    32
  0
VERTEX
  8
VISIBLE_NARROW__ISO_
  5
539
 10
7.36104
 20
19.7589
 30
0.000000
  70
    32
  0
VERTEX
  8
VISIBLE_NARROW__ISO_
  5
53A
 10
7.36079
 20
19.7548
 30
0.000000
  70
    32
  0
VERTEX
  8
VISIBLE_NARROW__ISO_
  5
53B
 10
7.36054
 20
19.7507
 30
0.000000
  70
    32
  0
VERTEX
  8
VISIBLE_NARROW__ISO_
  5
53C
 10
7.36031
 20
19.7466
 30
0.000000
  70
    32
  0
VERTEX
  8
VISIBLE_NARROW__ISO_
  5
53D
 10
7.36009
 20
19.7425
 30
0.000000
  70
    32
  0
VERTEX
  8
VISIBLE_NARROW__ISO_
  5
53E
 10
7.35988
 20
19.7384
 30
0.000000
  70
    32
  0
VERTEX
  8
VISIBLE_NARROW__ISO_
  5
53F
 10
7.35969
 20
19.7343
 30
0.000000
  70
    32
  0
VERTEX
  8
VISIBLE_NARROW__ISO_
  5
540
 10
7.35951
 20
19.7302
 30
0.000000
  70
    32
  0
VERTEX
  8
VISIBLE_NARROW__ISO_
  5
541
 10
7.35934
 20
19.7261
 30
0.000000
  70
    32
  0
VERTEX
  8
VISIBLE_NARROW__ISO_
  5
542
 10
7.35918
 20
19.7220
 30
0.000000
  70
    32
  0
VERTEX
  8
VISIBLE_NARROW__ISO_
  5
543
 10
7.35904
 20
19.7179
 30
0.000000
  70
    32
  0
VERTEX
  8
VISIBLE_NARROW__ISO_
  5
544
 10
7.35891
 20
19.7138
 30
0.000000
  70
    32
  0
VERTEX
  8
VISIBLE_NARROW__ISO_
  5
545
 10
7.35879
 20
19.7097
 30
0.000000
  70
    32
  0
VERTEX
  8
VISIBLE_NARROW__ISO_
  5
546
 10
7.35869
 20
19.7056
 30
0.000000
  70
    32
  0
VERTEX
  8
VISIBLE_NARROW__ISO_
  5
547
 10
7.35859
 20
19.7015
 30
0.000000
  70
    32
  0
VERTEX
  8
VISIBLE_NARROW__ISO_
  5
548
 10
7.35851
 20
19.6974
 30
0.000000
  70
    32
  0
VERTEX
  8
VISIBLE_NARROW__ISO_
  5
549
 10
7.35844
 20
19.6933
 30
0.000000
  70
    32
  0
VERTEX
  8
VISIBLE_NARROW__ISO_
  5
54A
 10
7.35839
 20
19.6892
 30
0.000000
  70
    32
  0
VERTEX
  8
VISIBLE_NARROW__ISO_
  5
54B
 10
7.35835
 20
19.6851
 30
0.000000
  70
    32
  0
VERTEX
  8
VISIBLE_NARROW__ISO_
  5
54C
 10
7.35832
 20
19.6810
 30
0.000000
  70
    32
  0
VERTEX
  8
VISIBLE_NARROW__ISO_
  5
54D
 10
7.35830
 20
19.6769
 30
0.000000
  70
    32
  0
VERTEX
  8
VISIBLE_NARROW__ISO_
  5
54E
 10
7.35829
 20
19.6728
 30
0.000000
  70
    32
  0
SEQEND
  8
VISIBLE_NARROW__ISO_
  5
54F
  0
LINE
  5
9E
  8
VISIBLE_NARROW__ISO_
 10
7.358293095053468
 20
4.7188241845865369
 30
0.0
 11
7.358293095053468
 21
19.6730089385409883
 31
0.0
  0
LINE
  5
9F
  8
VISIBLE_NARROW__ISO_
 10
36.0476192149564127
 20
3.385257621787559
 30
0.0
 11
8.6918596578522198
 21
3.3852576217876731
 31
0.0
  0
POLYLINE
  8
VISIBLE_NARROW__ISO_
  5
550
  66
     1
 10
0.000000
 20
0.000000
 30
0.000000
  70
     8
  0
VERTEX
  8
VISIBLE_NARROW__ISO_
  5
551
 10
36.0475
 20
3.38526
 30
0.000000
  70
    32
  0
VERTEX
  8
VISIBLE_NARROW__ISO_
  5
552
 10
36.0516
 20
3.38526
 30
0.000000
  70
    32
  0
VERTEX
  8
VISIBLE_NARROW__ISO_
  5
553
 10
36.0557
 20
3.38528
 30
0.000000
  70
    32
  0
VERTEX
  8
VISIBLE_NARROW__ISO_
  5
554
 10
36.0598
 20
3.38531
 30
0.000000
  70
    32
  0
VERTEX
  8
VISIBLE_NARROW__ISO_
  5
555
 10
36.0639
 20
3.38535
 30
0.000000
  70
    32
  0
VERTEX
  8
VISIBLE_NARROW__ISO_
  5
556
 10
36.0680
 20
3.38541
 30
0.000000
  70
    32
  0
VERTEX
  8
VISIBLE_NARROW__ISO_
  5
557
 10
36.0721
 20
3.38548
 30
0.000000
  70
    32
  0
VERTEX
  8
VISIBLE_NARROW__ISO_
  5
558
 10
36.0761
 20
3.38556
 30
0.000000
  70
    32
  0
VERTEX
  8
VISIBLE_NARROW__ISO_
  5
559
 10
36.0802
 20
3.38565
 30
0.000000
  70
    32
  0
VERTEX
  8
VISIBLE_NARROW__ISO_
  5
55A
 10
36.0843
 20
3.38576
 30
0.000000
  70
    32
  0
VERTEX
  8
VISIBLE_NARROW__ISO_
  5
55B
 10
36.0884
 20
3.38588
 30
0.000000
  70
    32
  0
VERTEX
  8
VISIBLE_NARROW__ISO_
  5
55C
 10
36.0925
 20
3.38601
 30
0.000000
  70
    32
  0
VERTEX
  8
VISIBLE_NARROW__ISO_
  5
55D
 10
36.0966
 20
3.38615
 30
0.000000
  70
    32
  0
VERTEX
  8
VISIBLE_NARROW__ISO_
  5
55E
 10
36.1007
 20
3.38631
 30
0.000000
  70
    32
  0
VERTEX
  8
VISIBLE_NARROW__ISO_
  5
55F
 10
36.1048
 20
3.38647
 30
0.000000
  70
    32
  0
VERTEX
  8
VISIBLE_NARROW__ISO_
  5
560
 10
36.1089
 20
3.38666
 30
0.000000
  70
    32
  0
VERTEX
  8
VISIBLE_NARROW__ISO_
  5
561
 10
36.1130
 20
3.38685
 30
0.000000
  70
    32
  0
VERTEX
  8
VISIBLE_NARROW__ISO_
  5
562
 10
36.1171
 20
3.38706
 30
0.000000
  70
    32
  0
VERTEX
  8
VISIBLE_NARROW__ISO_
  5
563
 10
36.1212
 20
3.38728
 30
0.000000
  70
    32
  0
VERTEX
  8
VISIBLE_NARROW__ISO_
  5
564
 10
36.1253
 20
3.38751
 30
0.000000
  70
    32
  0
VERTEX
  8
VISIBLE_NARROW__ISO_
  5
565
 10
36.1294
 20
3.38775
 30
0.000000
  70
    32
  0
VERTEX
  8
VISIBLE_NARROW__ISO_
  5
566
 10
36.1335
 20
3.38801
 30
0.000000
  70
    32
  0
VERTEX
  8
VISIBLE_NARROW__ISO_
  5
567
 10
36.1376
 20
3.38828
 30
0.000000
  70
    32
  0
VERTEX
  8
VISIBLE_NARROW__ISO_
  5
568
 10
36.1417
 20
3.38856
 30
0.000000
  70
    32
  0
VERTEX
  8
VISIBLE_NARROW__ISO_
  5
569
 10
36.1458
 20
3.38885
 30
0.000000
  70
    32
  0
VERTEX
  8
VISIBLE_NARROW__ISO_
  5
56A
 10
36.1498
 20
3.38916
 30
0.000000
  70
    32
  0
VERTEX
  8
VISIBLE_NARROW__ISO_
  5
56B
 10
36.1539
 20
3.38948
 30
0.000000
  70
    32
  0
VERTEX
  8
VISIBLE_NARROW__ISO_
  5
56C
 10
36.1580
 20
3.38981
 30
0.000000
  70
    32
  0
VERTEX
  8
VISIBLE_NARROW__ISO_
  5
56D
 10
36.1621
 20
3.39016
 30
0.000000
  70
    32
  0
VERTEX
  8
VISIBLE_NARROW__ISO_
  5
56E
 10
36.1662
 20
3.39051
 30
0.000000
  70
    32
  0
VERTEX
  8
VISIBLE_NARROW__ISO_
  5
56F
 10
36.1703
 20
3.39088
 30
0.000000
  70
    32
  0
VERTEX
  8
VISIBLE_NARROW__ISO_
  5
570
 10
36.1744
 20
3.39126
 30
0.000000
  70
    32
  0
VERTEX
  8
VISIBLE_NARROW__ISO_
  5
571
 10
36.1784
 20
3.39166
 30
0.000000
  70
    32
  0
VERTEX
  8
VISIBLE_NARROW__ISO_
  5
572
 10
36.1825
 20
3.39207
 30
0.000000
  70
    32
  0
VERTEX
  8
VISIBLE_NARROW__ISO_
  5
573
 10
36.1866
 20
3.39248
 30
0.000000
  70
    32
  0
VERTEX
  8
VISIBLE_NARROW__ISO_
  5
574
 10
36.1907
 20
3.39292
 30
0.000000
  70
    32
  0
VERTEX
  8
VISIBLE_NARROW__ISO_
  5
575
 10
36.1947
 20
3.39336
 30
0.000000
  70
    32
  0
VERTEX
  8
VISIBLE_NARROW__ISO_
  5
576
 10
36.1988
 20
3.39382
 30
0.000000
  70
    32
  0
VERTEX
  8
VISIBLE_NARROW__ISO_
  5
577
 10
36.2029
 20
3.39429
 30
0.000000
  70
    32
  0
VERTEX
  8
VISIBLE_NARROW__ISO_
  5
578
 10
36.2070
 20
3.39477
 30
0.000000
  70
    32
  0
VERTEX
  8
VISIBLE_NARROW__ISO_
  5
579
 10
36.2110
 20
3.39526
 30
0.000000
  70
    32
  0
VERTEX
  8
VISIBLE_NARROW__ISO_
  5
57A
 10
36.2151
 20
3.39577
 30
0.000000
  70
    32
  0
VERTEX
  8
VISIBLE_NARROW__ISO_
  5
57B
 10
36.2192
 20
3.39629
 30
0.000000
  70
    32
  0
VERTEX
  8
VISIBLE_NARROW__ISO_
  5
57C
 10
36.2232
 20
3.39682
 30
0.000000
  70
    32
  0
VERTEX
  8
VISIBLE_NARROW__ISO_
  5
57D
 10
36.2273
 20
3.39737
 30
0.000000
  70
    32
  0
VERTEX
  8
VISIBLE_NARROW__ISO_
  5
57E
 10
36.2314
 20
3.39792
 30
0.000000
  70
    32
  0
VERTEX
  8
VISIBLE_NARROW__ISO_
  5
57F
 10
36.2354
 20
3.39849
 30
0.000000
  70
    32
  0
VERTEX
  8
VISIBLE_NARROW__ISO_
  5
580
 10
36.2395
 20
3.39908
 30
0.000000
  70
    32
  0
VERTEX
  8
VISIBLE_NARROW__ISO_
  5
581
 10
36.2435
 20
3.39967
 30
0.000000
  70
    32
  0
VERTEX
  8
VISIBLE_NARROW__ISO_
  5
582
 10
36.2476
 20
3.40028
 30
0.000000
  70
    32
  0
VERTEX
  8
VISIBLE_NARROW__ISO_
  5
583
 10
36.2516
 20
3.40090
 30
0.000000
  70
    32
  0
VERTEX
  8
VISIBLE_NARROW__ISO_
  5
584
 10
36.2557
 20
3.40153
 30
0.000000
  70
    32
  0
VERTEX
  8
VISIBLE_NARROW__ISO_
  5
585
 10
36.2597
 20
3.40217
 30
0.000000
  70
    32
  0
VERTEX
  8
VISIBLE_NARROW__ISO_
  5
586
 10
36.2638
 20
3.40283
 30
0.000000
  70
    32
  0
VERTEX
  8
VISIBLE_NARROW__ISO_
  5
587
 10
36.2678
 20
3.40350
 30
0.000000
  70
    32
  0
VERTEX
  8
VISIBLE_NARROW__ISO_
  5
588
 10
36.2719
 20
3.40418
 30
0.000000
  70
    32
  0
VERTEX
  8
VISIBLE_NARROW__ISO_
  5
589
 10
36.2759
 20
3.40488
 30
0.000000
  70
    32
  0
VERTEX
  8
VISIBLE_NARROW__ISO_
  5
58A
 10
36.2800
 20
3.40558
 30
0.000000
  70
    32
  0
VERTEX
  8
VISIBLE_NARROW__ISO_
  5
58B
 10
36.2840
 20
3.40630
 30
0.000000
  70
    32
  0
VERTEX
  8
VISIBLE_NARROW__ISO_
  5
58C
 10
36.2880
 20
3.40703
 30
0.000000
  70
    32
  0
VERTEX
  8
VISIBLE_NARROW__ISO_
  5
58D
 10
36.2921
 20
3.40778
 30
0.000000
  70
    32
  0
VERTEX
  8
VISIBLE_NARROW__ISO_
  5
58E
 10
36.2961
 20
3.40853
 30
0.000000
  70
    32
  0
VERTEX
  8
VISIBLE_NARROW__ISO_
  5
58F
 10
36.3001
 20
3.40930
 30
0.000000
  70
    32
  0
VERTEX
  8
VISIBLE_NARROW__ISO_
  5
590
 10
36.3041
 20
3.41008
 30
0.000000
  70
    32
  0
VERTEX
  8
VISIBLE_NARROW__ISO_
  5
591
 10
36.3082
 20
3.41088
 30
0.000000
  70
    32
  0
VERTEX
  8
VISIBLE_NARROW__ISO_
  5
592
 10
36.3122
 20
3.41168
 30
0.000000
  70
    32
  0
VERTEX
  8
VISIBLE_NARROW__ISO_
  5
593
 10
36.3162
 20
3.41250
 30
0.000000
  70
    32
  0
VERTEX
  8
VISIBLE_NARROW__ISO_
  5
594
 10
36.3202
 20
3.41333
 30
0.000000
  70
    32
  0
VERTEX
  8
VISIBLE_NARROW__ISO_
  5
595
 10
36.3242
 20
3.41418
 30
0.000000
  70
    32
  0
VERTEX
  8
VISIBLE_NARROW__ISO_
  5
596
 10
36.3282
 20
3.41503
 30
0.000000
  70
    32
  0
VERTEX
  8
VISIBLE_NARROW__ISO_
  5
597
 10
36.3322
 20
3.41590
 30
0.000000
  70
    32
  0
VERTEX
  8
VISIBLE_NARROW__ISO_
  5
598
 10
36.3363
 20
3.41678
 30
0.000000
  70
    32
  0
VERTEX
  8
VISIBLE_NARROW__ISO_
  5
599
 10
36.3403
 20
3.41767
 30
0.000000
  70
    32
  0
VERTEX
  8
VISIBLE_NARROW__ISO_
  5
59A
 10
36.3443
 20
3.41858
 30
0.000000
  70
    32
  0
VERTEX
  8
VISIBLE_NARROW__ISO_
  5
59B
 10
36.3483
 20
3.41949
 30
0.000000
  70
    32
  0
VERTEX
  8
VISIBLE_NARROW__ISO_
  5
59C
 10
36.3522
 20
3.42042
 30
0.000000
  70
    32
  0
VERTEX
  8
VISIBLE_NARROW__ISO_
  5
59D
 10
36.3562
 20
3.42136
 30
0.000000
  70
    32
  0
VERTEX
  8
VISIBLE_NARROW__ISO_
  5
59E
 10
36.3602
 20
3.42232
 30
0.000000
  70
    32
  0
VERTEX
  8
VISIBLE_NARROW__ISO_
  5
59F
 10
36.3642
 20
3.42328
 30
0.000000
  70
    32
  0
VERTEX
  8
VISIBLE_NARROW__ISO_
  5
5A0
 10
36.3682
 20
3.42426
 30
0.000000
  70
    32
  0
VERTEX
  8
VISIBLE_NARROW__ISO_
  5
5A1
 10
36.3722
 20
3.42525
 30
0.000000
  70
    32
  0
VERTEX
  8
VISIBLE_NARROW__ISO_
  5
5A2
 10
36.3761
 20
3.42626
 30
0.000000
  70
    32
  0
VERTEX
  8
VISIBLE_NARROW__ISO_
  5
5A3
 10
36.3801
 20
3.42727
 30
0.000000
  70
    32
  0
VERTEX
  8
VISIBLE_NARROW__ISO_
  5
5A4
 10
36.3841
 20
3.42830
 30
0.000000
  70
    32
  0
VERTEX
  8
VISIBLE_NARROW__ISO_
  5
5A5
 10
36.3881
 20
3.42934
 30
0.000000
  70
    32
  0
VERTEX
  8
VISIBLE_NARROW__ISO_
  5
5A6
 10
36.3920
 20
3.43039
 30
0.000000
  70
    32
  0
VERTEX
  8
VISIBLE_NARROW__ISO_
  5
5A7
 10
36.3960
 20
3.43145
 30
0.000000
  70
    32
  0
VERTEX
  8
VISIBLE_NARROW__ISO_
  5
5A8
 10
36.3999
 20
3.43253
 30
0.000000
  70
    32
  0
VERTEX
  8
VISIBLE_NARROW__ISO_
  5
5A9
 10
36.4039
 20
3.43362
 30
0.000000
  70
    32
  0
VERTEX
  8
VISIBLE_NARROW__ISO_
  5
5AA
 10
36.4078
 20
3.43472
 30
0.000000
  70
    32
  0
VERTEX
  8
VISIBLE_NARROW__ISO_
  5
5AB
 10
36.4118
 20
3.43583
 30
0.000000
  70
    32
  0
VERTEX
  8
VISIBLE_NARROW__ISO_
  5
5AC
 10
36.4157
 20
3.43695
 30
0.000000
  70
    32
  0
VERTEX
  8
VISIBLE_NARROW__ISO_
  5
5AD
 10
36.4197
 20
3.43809
 30
0.000000
  70
    32
  0
VERTEX
  8
VISIBLE_NARROW__ISO_
  5
5AE
 10
36.4236
 20
3.43924
 30
0.000000
  70
    32
  0
VERTEX
  8
VISIBLE_NARROW__ISO_
  5
5AF
 10
36.4275
 20
3.44040
 30
0.000000
  70
    32
  0
VERTEX
  8
VISIBLE_NARROW__ISO_
  5
5B0
 10
36.4315
 20
3.44157
 30
0.000000
  70
    32
  0
VERTEX
  8
VISIBLE_NARROW__ISO_
  5
5B1
 10
36.4354
 20
3.44276
 30
0.000000
  70
    32
  0
VERTEX
  8
VISIBLE_NARROW__ISO_
  5
5B2
 10
36.4393
 20
3.44395
 30
0.000000
  70
    32
  0
VERTEX
  8
VISIBLE_NARROW__ISO_
  5
5B3
 10
36.4432
 20
3.44516
 30
0.000000
  70
    32
  0
VERTEX
  8
VISIBLE_NARROW__ISO_
  5
5B4
 10
36.4471
 20
3.44638
 30
0.000000
  70
    32
  0
VERTEX
  8
VISIBLE_NARROW__ISO_
  5
5B5
 10
36.4511
 20
3.44761
 30
0.000000
  70
    32
  0
VERTEX
  8
VISIBLE_NARROW__ISO_
  5
5B6
 10
36.4550
 20
3.44886
 30
0.000000
  70
    32
  0
VERTEX
  8
VISIBLE_NARROW__ISO_
  5
5B7
 10
36.4589
 20
3.45011
 30
0.000000
  70
    32
  0
VERTEX
  8
VISIBLE_NARROW__ISO_
  5
5B8
 10
36.4628
 20
3.45138
 30
0.000000
  70
    32
  0
VERTEX
  8
VISIBLE_NARROW__ISO_
  5
5B9
 10
36.4667
 20
3.45266
 30
0.000000
  70
    32
  0
VERTEX
  8
VISIBLE_NARROW__ISO_
  5
5BA
 10
36.4706
 20
3.45396
 30
0.000000
  70
    32
  0
VERTEX
  8
VISIBLE_NARROW__ISO_
  5
5BB
 10
36.4744
 20
3.45526
 30
0.000000
  70
    32
  0
VERTEX
  8
VISIBLE_NARROW__ISO_
  5
5BC
 10
36.4783
 20
3.45658
 30
0.000000
  70
    32
  0
VERTEX
  8
VISIBLE_NARROW__ISO_
  5
5BD
 10
36.4822
 20
3.45790
 30
0.000000
  70
    32
  0
VERTEX
  8
VISIBLE_NARROW__ISO_
  5
5BE
 10
36.4861
 20
3.45924
 30
0.000000
  70
    32
  0
VERTEX
  8
VISIBLE_NARROW__ISO_
  5
5BF
 10
36.4899
 20
3.46060
 30
0.000000
  70
    32
  0
VERTEX
  8
VISIBLE_NARROW__ISO_
  5
5C0
 10
36.4938
 20
3.46196
 30
0.000000
  70
    32
  0
VERTEX
  8
VISIBLE_NARROW__ISO_
  5
5C1
 10
36.4977
 20
3.46334
 30
0.000000
  70
    32
  0
VERTEX
  8
VISIBLE_NARROW__ISO_
  5
5C2
 10
36.5015
 20
3.46472
 30
0.000000
  70
    32
  0
VERTEX
  8
VISIBLE_NARROW__ISO_
  5
5C3
 10
36.5054
 20
3.46612
 30
0.000000
  70
    32
  0
VERTEX
  8
VISIBLE_NARROW__ISO_
  5
5C4
 10
36.5092
 20
3.46753
 30
0.000000
  70
    32
  0
VERTEX
  8
VISIBLE_NARROW__ISO_
  5
5C5
 10
36.5131
 20
3.46896
 30
0.000000
  70
    32
  0
VERTEX
  8
VISIBLE_NARROW__ISO_
  5
5C6
 10
36.5169
 20
3.47039
 30
0.000000
  70
    32
  0
VERTEX
  8
VISIBLE_NARROW__ISO_
  5
5C7
 10
36.5208
 20
3.47184
 30
0.000000
  70
    32
  0
VERTEX
  8
VISIBLE_NARROW__ISO_
  5
5C8
 10
36.5246
 20
3.47330
 30
0.000000
  70
    32
  0
VERTEX
  8
VISIBLE_NARROW__ISO_
  5
5C9
 10
36.5284
 20
3.47477
 30
0.000000
  70
    32
  0
VERTEX
  8
VISIBLE_NARROW__ISO_
  5
5CA
 10
36.5322
 20
3.47625
 30
0.000000
  70
    32
  0
VERTEX
  8
VISIBLE_NARROW__ISO_
  5
5CB
 10
36.5361
 20
3.47774
 30
0.000000
  70
    32
  0
VERTEX
  8
VISIBLE_NARROW__ISO_
  5
5CC
 10
36.5399
 20
3.47925
 30
0.000000
  70
    32
  0
VERTEX
  8
VISIBLE_NARROW__ISO_
  5
5CD
 10
36.5437
 20
3.48076
 30
0.000000
  70
    32
  0
VERTEX
  8
VISIBLE_NARROW__ISO_
  5
5CE
 10
36.5475
 20
3.48229
 30
0.000000
  70
    32
  0
VERTEX
  8
VISIBLE_NARROW__ISO_
  5
5CF
 10
36.5513
 20
3.48383
 30
0.000000
  70
    32
  0
VERTEX
  8
VISIBLE_NARROW__ISO_
  5
5D0
 10
36.5551
 20
3.48538
 30
0.000000
  70
    32
  0
VERTEX
  8
VISIBLE_NARROW__ISO_
  5
5D1
 10
36.5589
 20
3.48695
 30
0.000000
  70
    32
  0
VERTEX
  8
VISIBLE_NARROW__ISO_
  5
5D2
 10
36.5627
 20
3.48852
 30
0.000000
  70
    32
  0
VERTEX
  8
VISIBLE_NARROW__ISO_
  5
5D3
 10
36.5664
 20
3.49011
 30
0.000000
  70
    32
  0
VERTEX
  8
VISIBLE_NARROW__ISO_
  5
5D4
 10
36.5702
 20
3.49171
 30
0.000000
  70
    32
  0
VERTEX
  8
VISIBLE_NARROW__ISO_
  5
5D5
 10
36.5740
 20
3.49332
 30
0.000000
  70
    32
  0
VERTEX
  8
VISIBLE_NARROW__ISO_
  5
5D6
 10
36.5778
 20
3.49494
 30
0.000000
  70
    32
  0
VERTEX
  8
VISIBLE_NARROW__ISO_
  5
5D7
 10
36.5815
 20
3.49658
 30
0.000000
  70
    32
  0
VERTEX
  8
VISIBLE_NARROW__ISO_
  5
5D8
 10
36.5853
 20
3.49822
 30
0.000000
  70
    32
  0
VERTEX
  8
VISIBLE_NARROW__ISO_
  5
5D9
 10
36.5890
 20
3.49988
 30
0.000000
  70
    32
  0
VERTEX
  8
VISIBLE_NARROW__ISO_
  5
5DA
 10
36.5928
 20
3.50155
 30
0.000000
  70
    32
  0
VERTEX
  8
VISIBLE_NARROW__ISO_
  5
5DB
 10
36.5965
 20
3.50323
 30
0.000000
  70
    32
  0
VERTEX
  8
VISIBLE_NARROW__ISO_
  5
5DC
 10
36.6003
 20
3.50492
 30
0.000000
  70
    32
  0
VERTEX
  8
VISIBLE_NARROW__ISO_
  5
5DD
 10
36.6040
 20
3.50662
 30
0.000000
  70
    32
  0
VERTEX
  8
VISIBLE_NARROW__ISO_
  5
5DE
 10
36.6077
 20
3.50834
 30
0.000000
  70
    32
  0
VERTEX
  8
VISIBLE_NARROW__ISO_
  5
5DF
 10
36.6114
 20
3.51006
 30
0.000000
  70
    32
  0
VERTEX
  8
VISIBLE_NARROW__ISO_
  5
5E0
 10
36.6151
 20
3.51180
 30
0.000000
  70
    32
  0
VERTEX
  8
VISIBLE_NARROW__ISO_
  5
5E1
 10
36.6189
 20
3.51355
 30
0.000000
  70
    32
  0
VERTEX
  8
VISIBLE_NARROW__ISO_
  5
5E2
 10
36.6226
 20
3.51531
 30
0.000000
  70
    32
  0
VERTEX
  8
VISIBLE_NARROW__ISO_
  5
5E3
 10
36.6263
 20
3.51708
 30
0.000000
  70
    32
  0
VERTEX
  8
VISIBLE_NARROW__ISO_
  5
5E4
 10
36.6299
 20
3.51887
 30
0.000000
  70
    32
  0
VERTEX
  8
VISIBLE_NARROW__ISO_
  5
5E5
 10
36.6336
 20
3.52066
 30
0.000000
  70
    32
  0
VERTEX
  8
VISIBLE_NARROW__ISO_
  5
5E6
 10
36.6373
 20
3.52247
 30
0.000000
  70
    32
  0
VERTEX
  8
VISIBLE_NARROW__ISO_
  5
5E7
 10
36.6410
 20
3.52428
 30
0.000000
  70
    32
  0
VERTEX
  8
VISIBLE_NARROW__ISO_
  5
5E8
 10
36.6447
 20
3.52611
 30
0.000000
  70
    32
  0
VERTEX
  8
VISIBLE_NARROW__ISO_
  5
5E9
 10
36.6483
 20
3.52795
 30
0.000000
  70
    32
  0
VERTEX
  8
VISIBLE_NARROW__ISO_
  5
5EA
 10
36.6520
 20
3.52981
 30
0.000000
  70
    32
  0
VERTEX
  8
VISIBLE_NARROW__ISO_
  5
5EB
 10
36.6556
 20
3.53167
 30
0.000000
  70
    32
  0
VERTEX
  8
VISIBLE_NARROW__ISO_
  5
5EC
 10
36.6593
 20
3.53354
 30
0.000000
  70
    32
  0
VERTEX
  8
VISIBLE_NARROW__ISO_
  5
5ED
 10
36.6629
 20
3.53543
 30
0.000000
  70
    32
  0
VERTEX
  8
VISIBLE_NARROW__ISO_
  5
5EE
 10
36.6666
 20
3.53732
 30
0.000000
  70
    32
  0
VERTEX
  8
VISIBLE_NARROW__ISO_
  5
5EF
 10
36.6702
 20
3.53923
 30
0.000000
  70
    32
  0
VERTEX
  8
VISIBLE_NARROW__ISO_
  5
5F0
 10
36.6738
 20
3.54115
 30
0.000000
  70
    32
  0
VERTEX
  8
VISIBLE_NARROW__ISO_
  5
5F1
 10
36.6774
 20
3.54308
 30
0.000000
  70
    32
  0
VERTEX
  8
VISIBLE_NARROW__ISO_
  5
5F2
 10
36.6810
 20
3.54502
 30
0.000000
  70
    32
  0
VERTEX
  8
VISIBLE_NARROW__ISO_
  5
5F3
 10
36.6847
 20
3.54698
 30
0.000000
  70
    32
  0
VERTEX
  8
VISIBLE_NARROW__ISO_
  5
5F4
 10
36.6883
 20
3.54894
 30
0.000000
  70
    32
  0
VERTEX
  8
VISIBLE_NARROW__ISO_
  5
5F5
 10
36.6918
 20
3.55091
 30
0.000000
  70
    32
  0
VERTEX
  8
VISIBLE_NARROW__ISO_
  5
5F6
 10
36.6954
 20
3.55290
 30
0.000000
  70
    32
  0
VERTEX
  8
VISIBLE_NARROW__ISO_
  5
5F7
 10
36.6990
 20
3.55490
 30
0.000000
  70
    32
  0
VERTEX
  8
VISIBLE_NARROW__ISO_
  5
5F8
 10
36.7026
 20
3.55690
 30
0.000000
  70
    32
  0
VERTEX
  8
VISIBLE_NARROW__ISO_
  5
5F9
 10
36.7062
 20
3.55892
 30
0.000000
  70
    32
  0
VERTEX
  8
VISIBLE_NARROW__ISO_
  5
5FA
 10
36.7097
 20
3.56095
 30
0.000000
  70
    32
  0
VERTEX
  8
VISIBLE_NARROW__ISO_
  5
5FB
 10
36.7133
 20
3.56299
 30
0.000000
  70
    32
  0
VERTEX
  8
VISIBLE_NARROW__ISO_
  5
5FC
 10
36.7168
 20
3.56504
 30
0.000000
  70
    32
  0
VERTEX
  8
VISIBLE_NARROW__ISO_
  5
5FD
 10
36.7204
 20
3.56711
 30
0.000000
  70
    32
  0
VERTEX
  8
VISIBLE_NARROW__ISO_
  5
5FE
 10
36.7239
 20
3.56918
 30
0.000000
  70
    32
  0
VERTEX
  8
VISIBLE_NARROW__ISO_
  5
5FF
 10
36.7274
 20
3.57126
 30
0.000000
  70
    32
  0
VERTEX
  8
VISIBLE_NARROW__ISO_
  5
600
 10
36.7310
 20
3.57336
 30
0.000000
  70
    32
  0
VERTEX
  8
VISIBLE_NARROW__ISO_
  5
601
 10
36.7345
 20
3.57546
 30
0.000000
  70
    32
  0
VERTEX
  8
VISIBLE_NARROW__ISO_
  5
602
 10
36.7380
 20
3.57758
 30
0.000000
  70
    32
  0
VERTEX
  8
VISIBLE_NARROW__ISO_
  5
603
 10
36.7415
 20
3.57971
 30
0.000000
  70
    32
  0
VERTEX
  8
VISIBLE_NARROW__ISO_
  5
604
 10
36.7450
 20
3.58184
 30
0.000000
  70
    32
  0
VERTEX
  8
VISIBLE_NARROW__ISO_
  5
605
 10
36.7485
 20
3.58399
 30
0.000000
  70
    32
  0
VERTEX
  8
VISIBLE_NARROW__ISO_
  5
606
 10
36.7520
 20
3.58615
 30
0.000000
  70
    32
  0
VERTEX
  8
VISIBLE_NARROW__ISO_
  5
607
 10
36.7555
 20
3.58832
 30
0.000000
  70
    32
  0
VERTEX
  8
VISIBLE_NARROW__ISO_
  5
608
 10
36.7589
 20
3.59050
 30
0.000000
  70
    32
  0
VERTEX
  8
VISIBLE_NARROW__ISO_
  5
609
 10
36.7624
 20
3.59270
 30
0.000000
  70
    32
  0
VERTEX
  8
VISIBLE_NARROW__ISO_
  5
60A
 10
36.7659
 20
3.59490
 30
0.000000
  70
    32
  0
VERTEX
  8
VISIBLE_NARROW__ISO_
  5
60B
 10
36.7693
 20
3.59711
 30
0.000000
  70
    32
  0
VERTEX
  8
VISIBLE_NARROW__ISO_
  5
60C
 10
36.7728
 20
3.59933
 30
0.000000
  70
    32
  0
VERTEX
  8
VISIBLE_NARROW__ISO_
  5
60D
 10
36.7762
 20
3.60157
 30
0.000000
  70
    32
  0
VERTEX
  8
VISIBLE_NARROW__ISO_
  5
60E
 10
36.7796
 20
3.60381
 30
0.000000
  70
    32
  0
VERTEX
  8
VISIBLE_NARROW__ISO_
  5
60F
 10
36.7831
 20
3.60607
 30
0.000000
  70
    32
  0
VERTEX
  8
VISIBLE_NARROW__ISO_
  5
610
 10
36.7865
 20
3.60833
 30
0.000000
  70
    32
  0
VERTEX
  8
VISIBLE_NARROW__ISO_
  5
611
 10
36.7899
 20
3.61061
 30
0.000000
  70
    32
  0
VERTEX
  8
VISIBLE_NARROW__ISO_
  5
612
 10
36.7933
 20
3.61289
 30
0.000000
  70
    32
  0
VERTEX
  8
VISIBLE_NARROW__ISO_
  5
613
 10
36.7967
 20
3.61519
 30
0.000000
  70
    32
  0
VERTEX
  8
VISIBLE_NARROW__ISO_
  5
614
 10
36.8001
 20
3.61750
 30
0.000000
  70
    32
  0
VERTEX
  8
VISIBLE_NARROW__ISO_
  5
615
 10
36.8035
 20
3.61982
 30
0.000000
  70
    32
  0
VERTEX
  8
VISIBLE_NARROW__ISO_
  5
616
 10
36.8068
 20
3.62214
 30
0.000000
  70
    32
  0
VERTEX
  8
VISIBLE_NARROW__ISO_
  5
617
 10
36.8102
 20
3.62448
 30
0.000000
  70
    32
  0
VERTEX
  8
VISIBLE_NARROW__ISO_
  5
618
 10
36.8136
 20
3.62683
 30
0.000000
  70
    32
  0
VERTEX
  8
VISIBLE_NARROW__ISO_
  5
619
 10
36.8169
 20
3.62919
 30
0.000000
  70
    32
  0
VERTEX
  8
VISIBLE_NARROW__ISO_
  5
61A
 10
36.8203
 20
3.63156
 30
0.000000
  70
    32
  0
VERTEX
  8
VISIBLE_NARROW__ISO_
  5
61B
 10
36.8236
 20
3.63394
 30
0.000000
  70
    32
  0
VERTEX
  8
VISIBLE_NARROW__ISO_
  5
61C
 10
36.8270
 20
3.63633
 30
0.000000
  70
    32
  0
VERTEX
  8
VISIBLE_NARROW__ISO_
  5
61D
 10
36.8303
 20
3.63873
 30
0.000000
  70
    32
  0
VERTEX
  8
VISIBLE_NARROW__ISO_
  5
61E
 10
36.8336
 20
3.64114
 30
0.000000
  70
    32
  0
VERTEX
  8
VISIBLE_NARROW__ISO_
  5
61F
 10
36.8369
 20
3.64356
 30
0.000000
  70
    32
  0
VERTEX
  8
VISIBLE_NARROW__ISO_
  5
620
 10
36.8402
 20
3.64599
 30
0.000000
  70
    32
  0
VERTEX
  8
VISIBLE_NARROW__ISO_
  5
621
 10
36.8435
 20
3.64843
 30
0.000000
  70
    32
  0
VERTEX
  8
VISIBLE_NARROW__ISO_
  5
622
 10
36.8468
 20
3.65088
 30
0.000000
  70
    32
  0
VERTEX
  8
VISIBLE_NARROW__ISO_
  5
623
 10
36.8501
 20
3.65334
 30
0.000000
  70
    32
  0
VERTEX
  8
VISIBLE_NARROW__ISO_
  5
624
 10
36.8533
 20
3.65581
 30
0.000000
  70
    32
  0
VERTEX
  8
VISIBLE_NARROW__ISO_
  5
625
 10
36.8566
 20
3.65829
 30
0.000000
  70
    32
  0
VERTEX
  8
VISIBLE_NARROW__ISO_
  5
626
 10
36.8599
 20
3.66079
 30
0.000000
  70
    32
  0
VERTEX
  8
VISIBLE_NARROW__ISO_
  5
627
 10
36.8631
 20
3.66329
 30
0.000000
  70
    32
  0
VERTEX
  8
VISIBLE_NARROW__ISO_
  5
628
 10
36.8664
 20
3.66580
 30
0.000000
  70
    32
  0
VERTEX
  8
VISIBLE_NARROW__ISO_
  5
629
 10
36.8696
 20
3.66832
 30
0.000000
  70
    32
  0
VERTEX
  8
VISIBLE_NARROW__ISO_
  5
62A
 10
36.8728
 20
3.67085
 30
0.000000
  70
    32
  0
VERTEX
  8
VISIBLE_NARROW__ISO_
  5
62B
 10
36.8760
 20
3.67339
 30
0.000000
  70
    32
  0
VERTEX
  8
VISIBLE_NARROW__ISO_
  5
62C
 10
36.8793
 20
3.67594
 30
0.000000
  70
    32
  0
VERTEX
  8
VISIBLE_NARROW__ISO_
  5
62D
 10
36.8825
 20
3.67850
 30
0.000000
  70
    32
  0
VERTEX
  8
VISIBLE_NARROW__ISO_
  5
62E
 10
36.8857
 20
3.68107
 30
0.000000
  70
    32
  0
VERTEX
  8
VISIBLE_NARROW__ISO_
  5
62F
 10
36.8888
 20
3.68365
 30
0.000000
  70
    32
  0
VERTEX
  8
VISIBLE_NARROW__ISO_
  5
630
 10
36.8920
 20
3.68624
 30
0.000000
  70
    32
  0
VERTEX
  8
VISIBLE_NARROW__ISO_
  5
631
 10
36.8952
 20
3.68884
 30
0.000000
  70
    32
  0
VERTEX
  8
VISIBLE_NARROW__ISO_
  5
632
 10
36.8984
 20
3.69145
 30
0.000000
  70
    32
  0
VERTEX
  8
VISIBLE_NARROW__ISO_
  5
633
 10
36.9015
 20
3.69407
 30
0.000000
  70
    32
  0
VERTEX
  8
VISIBLE_NARROW__ISO_
  5
634
 10
36.9047
 20
3.69670
 30
0.000000
  70
    32
  0
VERTEX
  8
VISIBLE_NARROW__ISO_
  5
635
 10
36.9078
 20
3.69934
 30
0.000000
  70
    32
  0
VERTEX
  8
VISIBLE_NARROW__ISO_
  5
636
 10
36.9109
 20
3.70199
 30
0.000000
  70
    32
  0
VERTEX
  8
VISIBLE_NARROW__ISO_
  5
637
 10
36.9140
 20
3.70465
 30
0.000000
  70
    32
  0
VERTEX
  8
VISIBLE_NARROW__ISO_
  5
638
 10
36.9172
 20
3.70732
 30
0.000000
  70
    32
  0
VERTEX
  8
VISIBLE_NARROW__ISO_
  5
639
 10
36.9203
 20
3.71000
 30
0.000000
  70
    32
  0
VERTEX
  8
VISIBLE_NARROW__ISO_
  5
63A
 10
36.9234
 20
3.71268
 30
0.000000
  70
    32
  0
VERTEX
  8
VISIBLE_NARROW__ISO_
  5
63B
 10
36.9265
 20
3.71538
 30
0.000000
  70
    32
  0
VERTEX
  8
VISIBLE_NARROW__ISO_
  5
63C
 10
36.9295
 20
3.71809
 30
0.000000
  70
    32
  0
VERTEX
  8
VISIBLE_NARROW__ISO_
  5
63D
 10
36.9326
 20
3.72080
 30
0.000000
  70
    32
  0
VERTEX
  8
VISIBLE_NARROW__ISO_
  5
63E
 10
36.9357
 20
3.72353
 30
0.000000
  70
    32
  0
VERTEX
  8
VISIBLE_NARROW__ISO_
  5
63F
 10
36.9387
 20
3.72627
 30
0.000000
  70
    32
  0
VERTEX
  8
VISIBLE_NARROW__ISO_
  5
640
 10
36.9418
 20
3.72901
 30
0.000000
  70
    32
  0
VERTEX
  8
VISIBLE_NARROW__ISO_
  5
641
 10
36.9448
 20
3.73176
 30
0.000000
  70
    32
  0
VERTEX
  8
VISIBLE_NARROW__ISO_
  5
642
 10
36.9478
 20
3.73453
 30
0.000000
  70
    32
  0
VERTEX
  8
VISIBLE_NARROW__ISO_
  5
643
 10
36.9509
 20
3.73730
 30
0.000000
  70
    32
  0
VERTEX
  8
VISIBLE_NARROW__ISO_
  5
644
 10
36.9539
 20
3.74008
 30
0.000000
  70
    32
  0
VERTEX
  8
VISIBLE_NARROW__ISO_
  5
645
 10
36.9569
 20
3.74287
 30
0.000000
  70
    32
  0
VERTEX
  8
VISIBLE_NARROW__ISO_
  5
646
 10
36.9599
 20
3.74567
 30
0.000000
  70
    32
  0
VERTEX
  8
VISIBLE_NARROW__ISO_
  5
647
 10
36.9629
 20
3.74848
 30
0.000000
  70
    32
  0
VERTEX
  8
VISIBLE_NARROW__ISO_
  5
648
 10
36.9658
 20
3.75130
 30
0.000000
  70
    32
  0
VERTEX
  8
VISIBLE_NARROW__ISO_
  5
649
 10
36.9688
 20
3.75413
 30
0.000000
  70
    32
  0
VERTEX
  8
VISIBLE_NARROW__ISO_
  5
64A
 10
36.9718
 20
3.75697
 30
0.000000
  70
    32
  0
VERTEX
  8
VISIBLE_NARROW__ISO_
  5
64B
 10
36.9747
 20
3.75981
 30
0.000000
  70
    32
  0
VERTEX
  8
VISIBLE_NARROW__ISO_
  5
64C
 10
36.9777
 20
3.76267
 30
0.000000
  70
    32
  0
VERTEX
  8
VISIBLE_NARROW__ISO_
  5
64D
 10
36.9806
 20
3.76553
 30
0.000000
  70
    32
  0
VERTEX
  8
VISIBLE_NARROW__ISO_
  5
64E
 10
36.9835
 20
3.76841
 30
0.000000
  70
    32
  0
VERTEX
  8
VISIBLE_NARROW__ISO_
  5
64F
 10
36.9865
 20
3.77129
 30
0.000000
  70
    32
  0
VERTEX
  8
VISIBLE_NARROW__ISO_
  5
650
 10
36.9894
 20
3.77418
 30
0.000000
  70
    32
  0
VERTEX
  8
VISIBLE_NARROW__ISO_
  5
651
 10
36.9923
 20
3.77708
 30
0.000000
  70
    32
  0
VERTEX
  8
VISIBLE_NARROW__ISO_
  5
652
 10
36.9952
 20
3.77999
 30
0.000000
  70
    32
  0
VERTEX
  8
VISIBLE_NARROW__ISO_
  5
653
 10
36.9980
 20
3.78291
 30
0.000000
  70
    32
  0
VERTEX
  8
VISIBLE_NARROW__ISO_
  5
654
 10
37.0009
 20
3.78584
 30
0.000000
  70
    32
  0
VERTEX
  8
VISIBLE_NARROW__ISO_
  5
655
 10
37.0038
 20
3.78877
 30
0.000000
  70
    32
  0
VERTEX
  8
VISIBLE_NARROW__ISO_
  5
656
 10
37.0066
 20
3.79172
 30
0.000000
  70
    32
  0
VERTEX
  8
VISIBLE_NARROW__ISO_
  5
657
 10
37.0095
 20
3.79467
 30
0.000000
  70
    32
  0
VERTEX
  8
VISIBLE_NARROW__ISO_
  5
658
 10
37.0123
 20
3.79763
 30
0.000000
  70
    32
  0
VERTEX
  8
VISIBLE_NARROW__ISO_
  5
659
 10
37.0151
 20
3.80060
 30
0.000000
  70
    32
  0
VERTEX
  8
VISIBLE_NARROW__ISO_
  5
65A
 10
37.0180
 20
3.80358
 30
0.000000
  70
    32
  0
VERTEX
  8
VISIBLE_NARROW__ISO_
  5
65B
 10
37.0208
 20
3.80657
 30
0.000000
  70
    32
  0
VERTEX
  8
VISIBLE_NARROW__ISO_
  5
65C
 10
37.0236
 20
3.80957
 30
0.000000
  70
    32
  0
VERTEX
  8
VISIBLE_NARROW__ISO_
  5
65D
 10
37.0264
 20
3.81257
 30
0.000000
  70
    32
  0
VERTEX
  8
VISIBLE_NARROW__ISO_
  5
65E
 10
37.0291
 20
3.81559
 30
0.000000
  70
    32
  0
VERTEX
  8
VISIBLE_NARROW__ISO_
  5
65F
 10
37.0319
 20
3.81861
 30
0.000000
  70
    32
  0
VERTEX
  8
VISIBLE_NARROW__ISO_
  5
660
 10
37.0347
 20
3.82164
 30
0.000000
  70
    32
  0
VERTEX
  8
VISIBLE_NARROW__ISO_
  5
661
 10
37.0374
 20
3.82468
 30
0.000000
  70
    32
  0
VERTEX
  8
VISIBLE_NARROW__ISO_
  5
662
 10
37.0402
 20
3.82773
 30
0.000000
  70
    32
  0
VERTEX
  8
VISIBLE_NARROW__ISO_
  5
663
 10
37.0429
 20
3.83078
 30
0.000000
  70
    32
  0
VERTEX
  8
VISIBLE_NARROW__ISO_
  5
664
 10
37.0456
 20
3.83385
 30
0.000000
  70
    32
  0
VERTEX
  8
VISIBLE_NARROW__ISO_
  5
665
 10
37.0483
 20
3.83692
 30
0.000000
  70
    32
  0
VERTEX
  8
VISIBLE_NARROW__ISO_
  5
666
 10
37.0510
 20
3.84000
 30
0.000000
  70
    32
  0
VERTEX
  8
VISIBLE_NARROW__ISO_
  5
667
 10
37.0537
 20
3.84309
 30
0.000000
  70
    32
  0
VERTEX
  8
VISIBLE_NARROW__ISO_
  5
668
 10
37.0564
 20
3.84619
 30
0.000000
  70
    32
  0
VERTEX
  8
VISIBLE_NARROW__ISO_
  5
669
 10
37.0591
 20
3.84929
 30
0.000000
  70
    32
  0
VERTEX
  8
VISIBLE_NARROW__ISO_
  5
66A
 10
37.0618
 20
3.85241
 30
0.000000
  70
    32
  0
VERTEX
  8
VISIBLE_NARROW__ISO_
  5
66B
 10
37.0644
 20
3.85553
 30
0.000000
  70
    32
  0
VERTEX
  8
VISIBLE_NARROW__ISO_
  5
66C
 10
37.0671
 20
3.85866
 30
0.000000
  70
    32
  0
VERTEX
  8
VISIBLE_NARROW__ISO_
  5
66D
 10
37.0697
 20
3.86180
 30
0.000000
  70
    32
  0
VERTEX
  8
VISIBLE_NARROW__ISO_
  5
66E
 10
37.0724
 20
3.86495
 30
0.000000
  70
    32
  0
VERTEX
  8
VISIBLE_NARROW__ISO_
  5
66F
 10
37.0750
 20
3.86810
 30
0.000000
  70
    32
  0
VERTEX
  8
VISIBLE_NARROW__ISO_
  5
670
 10
37.0776
 20
3.87126
 30
0.000000
  70
    32
  0
VERTEX
  8
VISIBLE_NARROW__ISO_
  5
671
 10
37.0802
 20
3.87443
 30
0.000000
  70
    32
  0
VERTEX
  8
VISIBLE_NARROW__ISO_
  5
672
 10
37.0828
 20
3.87761
 30
0.000000
  70
    32
  0
VERTEX
  8
VISIBLE_NARROW__ISO_
  5
673
 10
37.0854
 20
3.88080
 30
0.000000
  70
    32
  0
VERTEX
  8
VISIBLE_NARROW__ISO_
  5
674
 10
37.0879
 20
3.88399
 30
0.000000
  70
    32
  0
VERTEX
  8
VISIBLE_NARROW__ISO_
  5
675
 10
37.0905
 20
3.88720
 30
0.000000
  70
    32
  0
VERTEX
  8
VISIBLE_NARROW__ISO_
  5
676
 10
37.0930
 20
3.89041
 30
0.000000
  70
    32
  0
VERTEX
  8
VISIBLE_NARROW__ISO_
  5
677
 10
37.0956
 20
3.89363
 30
0.000000
  70
    32
  0
VERTEX
  8
VISIBLE_NARROW__ISO_
  5
678
 10
37.0981
 20
3.89685
 30
0.000000
  70
    32
  0
VERTEX
  8
VISIBLE_NARROW__ISO_
  5
679
 10
37.1006
 20
3.90009
 30
0.000000
  70
    32
  0
VERTEX
  8
VISIBLE_NARROW__ISO_
  5
67A
 10
37.1032
 20
3.90333
 30
0.000000
  70
    32
  0
VERTEX
  8
VISIBLE_NARROW__ISO_
  5
67B
 10
37.1057
 20
3.90658
 30
0.000000
  70
    32
  0
VERTEX
  8
VISIBLE_NARROW__ISO_
  5
67C
 10
37.1081
 20
3.90983
 30
0.000000
  70
    32
  0
VERTEX
  8
VISIBLE_NARROW__ISO_
  5
67D
 10
37.1106
 20
3.91310
 30
0.000000
  70
    32
  0
VERTEX
  8
VISIBLE_NARROW__ISO_
  5
67E
 10
37.1131
 20
3.91637
 30
0.000000
  70
    32
  0
VERTEX
  8
VISIBLE_NARROW__ISO_
  5
67F
 10
37.1156
 20
3.91965
 30
0.000000
  70
    32
  0
VERTEX
  8
VISIBLE_NARROW__ISO_
  5
680
 10
37.1180
 20
3.92294
 30
0.000000
  70
    32
  0
VERTEX
  8
VISIBLE_NARROW__ISO_
  5
681
 10
37.1205
 20
3.92623
 30
0.000000
  70
    32
  0
VERTEX
  8
VISIBLE_NARROW__ISO_
  5
682
 10
37.1229
 20
3.92953
 30
0.000000
  70
    32
  0
VERTEX
  8
VISIBLE_NARROW__ISO_
  5
683
 10
37.1253
 20
3.93284
 30
0.000000
  70
    32
  0
VERTEX
  8
VISIBLE_NARROW__ISO_
  5
684
 10
37.1277
 20
3.93616
 30
0.000000
  70
    32
  0
VERTEX
  8
VISIBLE_NARROW__ISO_
  5
685
 10
37.1301
 20
3.93949
 30
0.000000
  70
    32
  0
VERTEX
  8
VISIBLE_NARROW__ISO_
  5
686
 10
37.1325
 20
3.94282
 30
0.000000
  70
    32
  0
VERTEX
  8
VISIBLE_NARROW__ISO_
  5
687
 10
37.1349
 20
3.94616
 30
0.000000
  70
    32
  0
VERTEX
  8
VISIBLE_NARROW__ISO_
  5
688
 10
37.1373
 20
3.94950
 30
0.000000
  70
    32
  0
VERTEX
  8
VISIBLE_NARROW__ISO_
  5
689
 10
37.1396
 20
3.95286
 30
0.000000
  70
    32
  0
VERTEX
  8
VISIBLE_NARROW__ISO_
  5
68A
 10
37.1420
 20
3.95622
 30
0.000000
  70
    32
  0
VERTEX
  8
VISIBLE_NARROW__ISO_
  5
68B
 10
37.1443
 20
3.95959
 30
0.000000
  70
    32
  0
VERTEX
  8
VISIBLE_NARROW__ISO_
  5
68C
 10
37.1466
 20
3.96296
 30
0.000000
  70
    32
  0
VERTEX
  8
VISIBLE_NARROW__ISO_
  5
68D
 10
37.1490
 20
3.96635
 30
0.000000
  70
    32
  0
VERTEX
  8
VISIBLE_NARROW__ISO_
  5
68E
 10
37.1513
 20
3.96974
 30
0.000000
  70
    32
  0
VERTEX
  8
VISIBLE_NARROW__ISO_
  5
68F
 10
37.1536
 20
3.97313
 30
0.000000
  70
    32
  0
VERTEX
  8
VISIBLE_NARROW__ISO_
  5
690
 10
37.1559
 20
3.97654
 30
0.000000
  70
    32
  0
VERTEX
  8
VISIBLE_NARROW__ISO_
  5
691
 10
37.1581
 20
3.97995
 30
0.000000
  70
    32
  0
VERTEX
  8
VISIBLE_NARROW__ISO_
  5
692
 10
37.1604
 20
3.98337
 30
0.000000
  70
    32
  0
VERTEX
  8
VISIBLE_NARROW__ISO_
  5
693
 10
37.1626
 20
3.98679
 30
0.000000
  70
    32
  0
VERTEX
  8
VISIBLE_NARROW__ISO_
  5
694
 10
37.1649
 20
3.99022
 30
0.000000
  70
    32
  0
VERTEX
  8
VISIBLE_NARROW__ISO_
  5
695
 10
37.1671
 20
3.99366
 30
0.000000
  70
    32
  0
VERTEX
  8
VISIBLE_NARROW__ISO_
  5
696
 10
37.1693
 20
3.99711
 30
0.000000
  70
    32
  0
VERTEX
  8
VISIBLE_NARROW__ISO_
  5
697
 10
37.1716
 20
4.00056
 30
0.000000
  70
    32
  0
VERTEX
  8
VISIBLE_NARROW__ISO_
  5
698
 10
37.1738
 20
4.00402
 30
0.000000
  70
    32
  0
VERTEX
  8
VISIBLE_NARROW__ISO_
  5
699
 10
37.1760
 20
4.00749
 30
0.000000
  70
    32
  0
VERTEX
  8
VISIBLE_NARROW__ISO_
  5
69A
 10
37.1781
 20
4.01096
 30
0.000000
  70
    32
  0
VERTEX
  8
VISIBLE_NARROW__ISO_
  5
69B
 10
37.1803
 20
4.01444
 30
0.000000
  70
    32
  0
VERTEX
  8
VISIBLE_NARROW__ISO_
  5
69C
 10
37.1825
 20
4.01793
 30
0.000000
  70
    32
  0
VERTEX
  8
VISIBLE_NARROW__ISO_
  5
69D
 10
37.1846
 20
4.02142
 30
0.000000
  70
    32
  0
VERTEX
  8
VISIBLE_NARROW__ISO_
  5
69E
 10
37.1867
 20
4.02492
 30
0.000000
  70
    32
  0
VERTEX
  8
VISIBLE_NARROW__ISO_
  5
69F
 10
37.1889
 20
4.02843
 30
0.000000
  70
    32
  0
VERTEX
  8
VISIBLE_NARROW__ISO_
  5
6A0
 10
37.1910
 20
4.03194
 30
0.000000
  70
    32
  0
VERTEX
  8
VISIBLE_NARROW__ISO_
  5
6A1
 10
37.1931
 20
4.03546
 30
0.000000
  70
    32
  0
VERTEX
  8
VISIBLE_NARROW__ISO_
  5
6A2
 10
37.1952
 20
4.03899
 30
0.000000
  70
    32
  0
VERTEX
  8
VISIBLE_NARROW__ISO_
  5
6A3
 10
37.1973
 20
4.04252
 30
0.000000
  70
    32
  0
VERTEX
  8
VISIBLE_NARROW__ISO_
  5
6A4
 10
37.1993
 20
4.04606
 30
0.000000
  70
    32
  0
VERTEX
  8
VISIBLE_NARROW__ISO_
  5
6A5
 10
37.2014
 20
4.04960
 30
0.000000
  70
    32
  0
VERTEX
  8
VISIBLE_NARROW__ISO_
  5
6A6
 10
37.2035
 20
4.05316
 30
0.000000
  70
    32
  0
VERTEX
  8
VISIBLE_NARROW__ISO_
  5
6A7
 10
37.2055
 20
4.05671
 30
0.000000
  70
    32
  0
VERTEX
  8
VISIBLE_NARROW__ISO_
  5
6A8
 10
37.2075
 20
4.06028
 30
0.000000
  70
    32
  0
VERTEX
  8
VISIBLE_NARROW__ISO_
  5
6A9
 10
37.2095
 20
4.06385
 30
0.000000
  70
    32
  0
VERTEX
  8
VISIBLE_NARROW__ISO_
  5
6AA
 10
37.2115
 20
4.06742
 30
0.000000
  70
    32
  0
VERTEX
  8
VISIBLE_NARROW__ISO_
  5
6AB
 10
37.2135
 20
4.07101
 30
0.000000
  70
    32
  0
VERTEX
  8
VISIBLE_NARROW__ISO_
  5
6AC
 10
37.2155
 20
4.07460
 30
0.000000
  70
    32
  0
VERTEX
  8
VISIBLE_NARROW__ISO_
  5
6AD
 10
37.2175
 20
4.07819
 30
0.000000
  70
    32
  0
VERTEX
  8
VISIBLE_NARROW__ISO_
  5
6AE
 10
37.2195
 20
4.08179
 30
0.000000
  70
    32
  0
VERTEX
  8
VISIBLE_NARROW__ISO_
  5
6AF
 10
37.2214
 20
4.08540
 30
0.000000
  70
    32
  0
VERTEX
  8
VISIBLE_NARROW__ISO_
  5
6B0
 10
37.2234
 20
4.08901
 30
0.000000
  70
    32
  0
VERTEX
  8
VISIBLE_NARROW__ISO_
  5
6B1
 10
37.2253
 20
4.09263
 30
0.000000
  70
    32
  0
VERTEX
  8
VISIBLE_NARROW__ISO_
  5
6B2
 10
37.2272
 20
4.09625
 30
0.000000
  70
    32
  0
VERTEX
  8
VISIBLE_NARROW__ISO_
  5
6B3
 10
37.2291
 20
4.09989
 30
0.000000
  70
    32
  0
VERTEX
  8
VISIBLE_NARROW__ISO_
  5
6B4
 10
37.2310
 20
4.10352
 30
0.000000
  70
    32
  0
VERTEX
  8
VISIBLE_NARROW__ISO_
  5
6B5
 10
37.2329
 20
4.10716
 30
0.000000
  70
    32
  0
VERTEX
  8
VISIBLE_NARROW__ISO_
  5
6B6
 10
37.2348
 20
4.11081
 30
0.000000
  70
    32
  0
VERTEX
  8
VISIBLE_NARROW__ISO_
  5
6B7
 10
37.2366
 20
4.11447
 30
0.000000
  70
    32
  0
VERTEX
  8
VISIBLE_NARROW__ISO_
  5
6B8
 10
37.2385
 20
4.11812
 30
0.000000
  70
    32
  0
VERTEX
  8
VISIBLE_NARROW__ISO_
  5
6B9
 10
37.2403
 20
4.12179
 30
0.000000
  70
    32
  0
VERTEX
  8
VISIBLE_NARROW__ISO_
  5
6BA
 10
37.2421
 20
4.12546
 30
0.000000
  70
    32
  0
VERTEX
  8
VISIBLE_NARROW__ISO_
  5
6BB
 10
37.2440
 20
4.12914
 30
0.000000
  70
    32
  0
VERTEX
  8
VISIBLE_NARROW__ISO_
  5
6BC
 10
37.2458
 20
4.13282
 30
0.000000
  70
    32
  0
VERTEX
  8
VISIBLE_NARROW__ISO_
  5
6BD
 10
37.2476
 20
4.13651
 30
0.000000
  70
    32
  0
VERTEX
  8
VISIBLE_NARROW__ISO_
  5
6BE
 10
37.2493
 20
4.14020
 30
0.000000
  70
    32
  0
VERTEX
  8
VISIBLE_NARROW__ISO_
  5
6BF
 10
37.2511
 20
4.14390
 30
0.000000
  70
    32
  0
VERTEX
  8
VISIBLE_NARROW__ISO_
  5
6C0
 10
37.2529
 20
4.14760
 30
0.000000
  70
    32
  0
VERTEX
  8
VISIBLE_NARROW__ISO_
  5
6C1
 10
37.2546
 20
4.15131
 30
0.000000
  70
    32
  0
VERTEX
  8
VISIBLE_NARROW__ISO_
  5
6C2
 10
37.2564
 20
4.15502
 30
0.000000
  70
    32
  0
VERTEX
  8
VISIBLE_NARROW__ISO_
  5
6C3
 10
37.2581
 20
4.15874
 30
0.000000
  70
    32
  0
VERTEX
  8
VISIBLE_NARROW__ISO_
  5
6C4
 10
37.2598
 20
4.16247
 30
0.000000
  70
    32
  0
VERTEX
  8
VISIBLE_NARROW__ISO_
  5
6C5
 10
37.2615
 20
4.16620
 30
0.000000
  70
    32
  0
VERTEX
  8
VISIBLE_NARROW__ISO_
  5
6C6
 10
37.2632
 20
4.16993
 30
0.000000
  70
    32
  0
VERTEX
  8
VISIBLE_NARROW__ISO_
  5
6C7
 10
37.2649
 20
4.17367
 30
0.000000
  70
    32
  0
VERTEX
  8
VISIBLE_NARROW__ISO_
  5
6C8
 10
37.2666
 20
4.17742
 30
0.000000
  70
    32
  0
VERTEX
  8
VISIBLE_NARROW__ISO_
  5
6C9
 10
37.2682
 20
4.18117
 30
0.000000
  70
    32
  0
VERTEX
  8
VISIBLE_NARROW__ISO_
  5
6CA
 10
37.2699
 20
4.18493
 30
0.000000
  70
    32
  0
VERTEX
  8
VISIBLE_NARROW__ISO_
  5
6CB
 10
37.2715
 20
4.18869
 30
0.000000
  70
    32
  0
VERTEX
  8
VISIBLE_NARROW__ISO_
  5
6CC
 10
37.2731
 20
4.19245
 30
0.000000
  70
    32
  0
VERTEX
  8
VISIBLE_NARROW__ISO_
  5
6CD
 10
37.2747
 20
4.19622
 30
0.000000
  70
    32
  0
VERTEX
  8
VISIBLE_NARROW__ISO_
  5
6CE
 10
37.2763
 20
4.20000
 30
0.000000
  70
    32
  0
VERTEX
  8
VISIBLE_NARROW__ISO_
  5
6CF
 10
37.2779
 20
4.20378
 30
0.000000
  70
    32
  0
VERTEX
  8
VISIBLE_NARROW__ISO_
  5
6D0
 10
37.2795
 20
4.20756
 30
0.000000
  70
    32
  0
VERTEX
  8
VISIBLE_NARROW__ISO_
  5
6D1
 10
37.2811
 20
4.21135
 30
0.000000
  70
    32
  0
VERTEX
  8
VISIBLE_NARROW__ISO_
  5
6D2
 10
37.2826
 20
4.21515
 30
0.000000
  70
    32
  0
VERTEX
  8
VISIBLE_NARROW__ISO_
  5
6D3
 10
37.2841
 20
4.21895
 30
0.000000
  70
    32
  0
VERTEX
  8
VISIBLE_NARROW__ISO_
  5
6D4
 10
37.2857
 20
4.22275
 30
0.000000
  70
    32
  0
VERTEX
  8
VISIBLE_NARROW__ISO_
  5
6D5
 10
37.2872
 20
4.22656
 30
0.000000
  70
    32
  0
VERTEX
  8
VISIBLE_NARROW__ISO_
  5
6D6
 10
37.2887
 20
4.23038
 30
0.000000
  70
    32
  0
VERTEX
  8
VISIBLE_NARROW__ISO_
  5
6D7
 10
37.2902
 20
4.23420
 30
0.000000
  70
    32
  0
VERTEX
  8
VISIBLE_NARROW__ISO_
  5
6D8
 10
37.2917
 20
4.23802
 30
0.000000
  70
    32
  0
VERTEX
  8
VISIBLE_NARROW__ISO_
  5
6D9
 10
37.2932
 20
4.24185
 30
0.000000
  70
    32
  0
VERTEX
  8
VISIBLE_NARROW__ISO_
  5
6DA
 10
37.2946
 20
4.24568
 30
0.000000
  70
    32
  0
VERTEX
  8
VISIBLE_NARROW__ISO_
  5
6DB
 10
37.2961
 20
4.24951
 30
0.000000
  70
    32
  0
VERTEX
  8
VISIBLE_NARROW__ISO_
  5
6DC
 10
37.2975
 20
4.25335
 30
0.000000
  70
    32
  0
VERTEX
  8
VISIBLE_NARROW__ISO_
  5
6DD
 10
37.2989
 20
4.25720
 30
0.000000
  70
    32
  0
VERTEX
  8
VISIBLE_NARROW__ISO_
  5
6DE
 10
37.3003
 20
4.26105
 30
0.000000
  70
    32
  0
VERTEX
  8
VISIBLE_NARROW__ISO_
  5
6DF
 10
37.3017
 20
4.26490
 30
0.000000
  70
    32
  0
VERTEX
  8
VISIBLE_NARROW__ISO_
  5
6E0
 10
37.3031
 20
4.26876
 30
0.000000
  70
    32
  0
VERTEX
  8
VISIBLE_NARROW__ISO_
  5
6E1
 10
37.3045
 20
4.27262
 30
0.000000
  70
    32
  0
VERTEX
  8
VISIBLE_NARROW__ISO_
  5
6E2
 10
37.3059
 20
4.27649
 30
0.000000
  70
    32
  0
VERTEX
  8
VISIBLE_NARROW__ISO_
  5
6E3
 10
37.3072
 20
4.28036
 30
0.000000
  70
    32
  0
VERTEX
  8
VISIBLE_NARROW__ISO_
  5
6E4
 10
37.3086
 20
4.28424
 30
0.000000
  70
    32
  0
VERTEX
  8
VISIBLE_NARROW__ISO_
  5
6E5
 10
37.3099
 20
4.28812
 30
0.000000
  70
    32
  0
VERTEX
  8
VISIBLE_NARROW__ISO_
  5
6E6
 10
37.3112
 20
4.29200
 30
0.000000
  70
    32
  0
VERTEX
  8
VISIBLE_NARROW__ISO_
  5
6E7
 10
37.3125
 20
4.29589
 30
0.000000
  70
    32
  0
VERTEX
  8
VISIBLE_NARROW__ISO_
  5
6E8
 10
37.3138
 20
4.29978
 30
0.000000
  70
    32
  0
VERTEX
  8
VISIBLE_NARROW__ISO_
  5
6E9
 10
37.3151
 20
4.30367
 30
0.000000
  70
    32
  0
VERTEX
  8
VISIBLE_NARROW__ISO_
  5
6EA
 10
37.3163
 20
4.30757
 30
0.000000
  70
    32
  0
VERTEX
  8
VISIBLE_NARROW__ISO_
  5
6EB
 10
37.3176
 20
4.31148
 30
0.000000
  70
    32
  0
VERTEX
  8
VISIBLE_NARROW__ISO_
  5
6EC
 10
37.3188
 20
4.31538
 30
0.000000
  70
    32
  0
VERTEX
  8
VISIBLE_NARROW__ISO_
  5
6ED
 10
37.3201
 20
4.31929
 30
0.000000
  70
    32
  0
VERTEX
  8
VISIBLE_NARROW__ISO_
  5
6EE
 10
37.3213
 20
4.32321
 30
0.000000
  70
    32
  0
VERTEX
  8
VISIBLE_NARROW__ISO_
  5
6EF
 10
37.3225
 20
4.32713
 30
0.000000
  70
    32
  0
VERTEX
  8
VISIBLE_NARROW__ISO_
  5
6F0
 10
37.3237
 20
4.33105
 30
0.000000
  70
    32
  0
VERTEX
  8
VISIBLE_NARROW__ISO_
  5
6F1
 10
37.3249
 20
4.33497
 30
0.000000
  70
    32
  0
VERTEX
  8
VISIBLE_NARROW__ISO_
  5
6F2
 10
37.3261
 20
4.33890
 30
0.000000
  70
    32
  0
VERTEX
  8
VISIBLE_NARROW__ISO_
  5
6F3
 10
37.3272
 20
4.34284
 30
0.000000
  70
    32
  0
VERTEX
  8
VISIBLE_NARROW__ISO_
  5
6F4
 10
37.3284
 20
4.34677
 30
0.000000
  70
    32
  0
VERTEX
  8
VISIBLE_NARROW__ISO_
  5
6F5
 10
37.3295
 20
4.35071
 30
0.000000
  70
    32
  0
VERTEX
  8
VISIBLE_NARROW__ISO_
  5
6F6
 10
37.3306
 20
4.35466
 30
0.000000
  70
    32
  0
VERTEX
  8
VISIBLE_NARROW__ISO_
  5
6F7
 10
37.3317
 20
4.35860
 30
0.000000
  70
    32
  0
VERTEX
  8
VISIBLE_NARROW__ISO_
  5
6F8
 10
37.3328
 20
4.36255
 30
0.000000
  70
    32
  0
VERTEX
  8
VISIBLE_NARROW__ISO_
  5
6F9
 10
37.3339
 20
4.36651
 30
0.000000
  70
    32
  0
VERTEX
  8
VISIBLE_NARROW__ISO_
  5
6FA
 10
37.3350
 20
4.37046
 30
0.000000
  70
    32
  0
VERTEX
  8
VISIBLE_NARROW__ISO_
  5
6FB
 10
37.3361
 20
4.37442
 30
0.000000
  70
    32
  0
VERTEX
  8
VISIBLE_NARROW__ISO_
  5
6FC
 10
37.3371
 20
4.37839
 30
0.000000
  70
    32
  0
VERTEX
  8
VISIBLE_NARROW__ISO_
  5
6FD
 10
37.3382
 20
4.38235
 30
0.000000
  70
    32
  0
VERTEX
  8
VISIBLE_NARROW__ISO_
  5
6FE
 10
37.3392
 20
4.38632
 30
0.000000
  70
    32
  0
VERTEX
  8
VISIBLE_NARROW__ISO_
  5
6FF
 10
37.3402
 20
4.39030
 30
0.000000
  70
    32
  0
VERTEX
  8
VISIBLE_NARROW__ISO_
  5
700
 10
37.3412
 20
4.39427
 30
0.000000
  70
    32
  0
VERTEX
  8
VISIBLE_NARROW__ISO_
  5
701
 10
37.3422
 20
4.39825
 30
0.000000
  70
    32
  0
VERTEX
  8
VISIBLE_NARROW__ISO_
  5
702
 10
37.3432
 20
4.40223
 30
0.000000
  70
    32
  0
VERTEX
  8
VISIBLE_NARROW__ISO_
  5
703
 10
37.3441
 20
4.40622
 30
0.000000
  70
    32
  0
VERTEX
  8
VISIBLE_NARROW__ISO_
  5
704
 10
37.3451
 20
4.41021
 30
0.000000
  70
    32
  0
VERTEX
  8
VISIBLE_NARROW__ISO_
  5
705
 10
37.3460
 20
4.41420
 30
0.000000
  70
    32
  0
VERTEX
  8
VISIBLE_NARROW__ISO_
  5
706
 10
37.3469
 20
4.41819
 30
0.000000
  70
    32
  0
VERTEX
  8
VISIBLE_NARROW__ISO_
  5
707
 10
37.3479
 20
4.42219
 30
0.000000
  70
    32
  0
VERTEX
  8
VISIBLE_NARROW__ISO_
  5
708
 10
37.3488
 20
4.42619
 30
0.000000
  70
    32
  0
VERTEX
  8
VISIBLE_NARROW__ISO_
  5
709
 10
37.3497
 20
4.43019
 30
0.000000
  70
    32
  0
VERTEX
  8
VISIBLE_NARROW__ISO_
  5
70A
 10
37.3505
 20
4.43420
 30
0.000000
  70
    32
  0
VERTEX
  8
VISIBLE_NARROW__ISO_
  5
70B
 10
37.3514
 20
4.43820
 30
0.000000
  70
    32
  0
VERTEX
  8
VISIBLE_NARROW__ISO_
  5
70C
 10
37.3523
 20
4.44221
 30
0.000000
  70
    32
  0
VERTEX
  8
VISIBLE_NARROW__ISO_
  5
70D
 10
37.3531
 20
4.44623
 30
0.000000
  70
    32
  0
VERTEX
  8
VISIBLE_NARROW__ISO_
  5
70E
 10
37.3539
 20
4.45024
 30
0.000000
  70
    32
  0
VERTEX
  8
VISIBLE_NARROW__ISO_
  5
70F
 10
37.3547
 20
4.45426
 30
0.000000
  70
    32
  0
VERTEX
  8
VISIBLE_NARROW__ISO_
  5
710
 10
37.3556
 20
4.45828
 30
0.000000
  70
    32
  0
VERTEX
  8
VISIBLE_NARROW__ISO_
  5
711
 10
37.3563
 20
4.46230
 30
0.000000
  70
    32
  0
VERTEX
  8
VISIBLE_NARROW__ISO_
  5
712
 10
37.3571
 20
4.46633
 30
0.000000
  70
    32
  0
VERTEX
  8
VISIBLE_NARROW__ISO_
  5
713
 10
37.3579
 20
4.47035
 30
0.000000
  70
    32
  0
VERTEX
  8
VISIBLE_NARROW__ISO_
  5
714
 10
37.3586
 20
4.47438
 30
0.000000
  70
    32
  0
VERTEX
  8
VISIBLE_NARROW__ISO_
  5
715
 10
37.3594
 20
4.47842
 30
0.000000
  70
    32
  0
VERTEX
  8
VISIBLE_NARROW__ISO_
  5
716
 10
37.3601
 20
4.48245
 30
0.000000
  70
    32
  0
VERTEX
  8
VISIBLE_NARROW__ISO_
  5
717
 10
37.3608
 20
4.48649
 30
0.000000
  70
    32
  0
VERTEX
  8
VISIBLE_NARROW__ISO_
  5
718
 10
37.3615
 20
4.49053
 30
0.000000
  70
    32
  0
VERTEX
  8
VISIBLE_NARROW__ISO_
  5
719
 10
37.3622
 20
4.49457
 30
0.000000
  70
    32
  0
VERTEX
  8
VISIBLE_NARROW__ISO_
  5
71A
 10
37.3629
 20
4.49861
 30
0.000000
  70
    32
  0
VERTEX
  8
VISIBLE_NARROW__ISO_
  5
71B
 10
37.3636
 20
4.50265
 30
0.000000
  70
    32
  0
VERTEX
  8
VISIBLE_NARROW__ISO_
  5
71C
 10
37.3643
 20
4.50670
 30
0.000000
  70
    32
  0
VERTEX
  8
VISIBLE_NARROW__ISO_
  5
71D
 10
37.3649
 20
4.51075
 30
0.000000
  70
    32
  0
VERTEX
  8
VISIBLE_NARROW__ISO_
  5
71E
 10
37.3655
 20
4.51480
 30
0.000000
  70
    32
  0
VERTEX
  8
VISIBLE_NARROW__ISO_
  5
71F
 10
37.3661
 20
4.51885
 30
0.000000
  70
    32
  0
VERTEX
  8
VISIBLE_NARROW__ISO_
  5
720
 10
37.3668
 20
4.52291
 30
0.000000
  70
    32
  0
VERTEX
  8
VISIBLE_NARROW__ISO_
  5
721
 10
37.3674
 20
4.52697
 30
0.000000
  70
    32
  0
VERTEX
  8
VISIBLE_NARROW__ISO_
  5
722
 10
37.3679
 20
4.53102
 30
0.000000
  70
    32
  0
VERTEX
  8
VISIBLE_NARROW__ISO_
  5
723
 10
37.3685
 20
4.53508
 30
0.000000
  70
    32
  0
VERTEX
  8
VISIBLE_NARROW__ISO_
  5
724
 10
37.3691
 20
4.53915
 30
0.000000
  70
    32
  0
VERTEX
  8
VISIBLE_NARROW__ISO_
  5
725
 10
37.3696
 20
4.54321
 30
0.000000
  70
    32
  0
VERTEX
  8
VISIBLE_NARROW__ISO_
  5
726
 10
37.3701
 20
4.54727
 30
0.000000
  70
    32
  0
VERTEX
  8
VISIBLE_NARROW__ISO_
  5
727
 10
37.3707
 20
4.55134
 30
0.000000
  70
    32
  0
VERTEX
  8
VISIBLE_NARROW__ISO_
  5
728
 10
37.3712
 20
4.55541
 30
0.000000
  70
    32
  0
VERTEX
  8
VISIBLE_NARROW__ISO_
  5
729
 10
37.3717
 20
4.55948
 30
0.000000
  70
    32
  0
VERTEX
  8
VISIBLE_NARROW__ISO_
  5
72A
 10
37.3721
 20
4.56355
 30
0.000000
  70
    32
  0
VERTEX
  8
VISIBLE_NARROW__ISO_
  5
72B
 10
37.3726
 20
4.56762
 30
0.000000
  70
    32
  0
VERTEX
  8
VISIBLE_NARROW__ISO_
  5
72C
 10
37.3731
 20
4.57170
 30
0.000000
  70
    32
  0
VERTEX
  8
VISIBLE_NARROW__ISO_
  5
72D
 10
37.3735
 20
4.57577
 30
0.000000
  70
    32
  0
VERTEX
  8
VISIBLE_NARROW__ISO_
  5
72E
 10
37.3740
 20
4.57985
 30
0.000000
  70
    32
  0
VERTEX
  8
VISIBLE_NARROW__ISO_
  5
72F
 10
37.3744
 20
4.58393
 30
0.000000
  70
    32
  0
VERTEX
  8
VISIBLE_NARROW__ISO_
  5
730
 10
37.3748
 20
4.58801
 30
0.000000
  70
    32
  0
VERTEX
  8
VISIBLE_NARROW__ISO_
  5
731
 10
37.3752
 20
4.59209
 30
0.000000
  70
    32
  0
VERTEX
  8
VISIBLE_NARROW__ISO_
  5
732
 10
37.3756
 20
4.59617
 30
0.000000
  70
    32
  0
VERTEX
  8
VISIBLE_NARROW__ISO_
  5
733
 10
37.3759
 20
4.60025
 30
0.000000
  70
    32
  0
VERTEX
  8
VISIBLE_NARROW__ISO_
  5
734
 10
37.3763
 20
4.60434
 30
0.000000
  70
    32
  0
VERTEX
  8
VISIBLE_NARROW__ISO_
  5
735
 10
37.3766
 20
4.60842
 30
0.000000
  70
    32
  0
VERTEX
  8
VISIBLE_NARROW__ISO_
  5
736
 10
37.3770
 20
4.61251
 30
0.000000
  70
    32
  0
VERTEX
  8
VISIBLE_NARROW__ISO_
  5
737
 10
37.3773
 20
4.61660
 30
0.000000
  70
    32
  0
VERTEX
  8
VISIBLE_NARROW__ISO_
  5
738
 10
37.3776
 20
4.62069
 30
0.000000
  70
    32
  0
VERTEX
  8
VISIBLE_NARROW__ISO_
  5
739
 10
37.3779
 20
4.62477
 30
0.000000
  70
    32
  0
VERTEX
  8
VISIBLE_NARROW__ISO_
  5
73A
 10
37.3782
 20
4.62886
 30
0.000000
  70
    32
  0
VERTEX
  8
VISIBLE_NARROW__ISO_
  5
73B
 10
37.3784
 20
4.63296
 30
0.000000
  70
    32
  0
VERTEX
  8
VISIBLE_NARROW__ISO_
  5
73C
 10
37.3787
 20
4.63705
 30
0.000000
  70
    32
  0
VERTEX
  8
VISIBLE_NARROW__ISO_
  5
73D
 10
37.3789
 20
4.64114
 30
0.000000
  70
    32
  0
VERTEX
  8
VISIBLE_NARROW__ISO_
  5
73E
 10
37.3792
 20
4.64523
 30
0.000000
  70
    32
  0
VERTEX
  8
VISIBLE_NARROW__ISO_
  5
73F
 10
37.3794
 20
4.64933
 30
0.000000
  70
    32
  0
VERTEX
  8
VISIBLE_NARROW__ISO_
  5
740
 10
37.3796
 20
4.65342
 30
0.000000
  70
    32
  0
VERTEX
  8
VISIBLE_NARROW__ISO_
  5
741
 10
37.3798
 20
4.65752
 30
0.000000
  70
    32
  0
VERTEX
  8
VISIBLE_NARROW__ISO_
  5
742
 10
37.3800
 20
4.66161
 30
0.000000
  70
    32
  0
VERTEX
  8
VISIBLE_NARROW__ISO_
  5
743
 10
37.3801
 20
4.66571
 30
0.000000
  70
    32
  0
VERTEX
  8
VISIBLE_NARROW__ISO_
  5
744
 10
37.3803
 20
4.66980
 30
0.000000
  70
    32
  0
VERTEX
  8
VISIBLE_NARROW__ISO_
  5
745
 10
37.3804
 20
4.67390
 30
0.000000
  70
    32
  0
VERTEX
  8
VISIBLE_NARROW__ISO_
  5
746
 10
37.3806
 20
4.67800
 30
0.000000
  70
    32
  0
VERTEX
  8
VISIBLE_NARROW__ISO_
  5
747
 10
37.3807
 20
4.68210
 30
0.000000
  70
    32
  0
VERTEX
  8
VISIBLE_NARROW__ISO_
  5
748
 10
37.3808
 20
4.68620
 30
0.000000
  70
    32
  0
VERTEX
  8
VISIBLE_NARROW__ISO_
  5
749
 10
37.3809
 20
4.69029
 30
0.000000
  70
    32
  0
VERTEX
  8
VISIBLE_NARROW__ISO_
  5
74A
 10
37.3810
 20
4.69439
 30
0.000000
  70
    32
  0
VERTEX
  8
VISIBLE_NARROW__ISO_
  5
74B
 10
37.3810
 20
4.69849
 30
0.000000
  70
    32
  0
VERTEX
  8
VISIBLE_NARROW__ISO_
  5
74C
 10
37.3811
 20
4.70259
 30
0.000000
  70
    32
  0
VERTEX
  8
VISIBLE_NARROW__ISO_
  5
74D
 10
37.3811
 20
4.70669
 30
0.000000
  70
    32
  0
VERTEX
  8
VISIBLE_NARROW__ISO_
  5
74E
 10
37.3812
 20
4.71079
 30
0.000000
  70
    32
  0
VERTEX
  8
VISIBLE_NARROW__ISO_
  5
74F
 10
37.3812
 20
4.71489
 30
0.000000
  70
    32
  0
VERTEX
  8
VISIBLE_NARROW__ISO_
  5
750
 10
37.3812
 20
4.71899
 30
0.000000
  70
    32
  0
SEQEND
  8
VISIBLE_NARROW__ISO_
  5
751
  0
LINE
  5
A1
  8
VISIBLE_NARROW__ISO_
 10
37.3811857777551566
 20
19.6730089385409883
 30
0.0
 11
37.3811857777551566
 21
4.7188241845865369
 31
0.0
  0
ARC
  5
A2
  8
SKETCH_GEOMETRY__ISO_
 10
8.6911064455376987
 20
4.7180709722719021
 30
0.0
 40
1.332813711578245
 50
179.9450642026421008
 51
270.0549357973707743
  0
VIEWPORT
  5
AC
 67
     1
  8
0
 10
9.6903788671841262
 20
4.9206531242659821
 30
0.0
 40
54.6642978495842797
 41
23.0220792866518416
 68
     1
 69
     1
1001
ACAD
1000
MVIEW
1002
{
1070
    16
1010
0.0
1020
0.0
1030
0.0
1010
0.0
1020
0.0
1030
1.0
1040
0.0
1040
23.0220792866518416
1040
9.6903788671841262
1040
4.9206531242659821
1040
50.0
1040
0.0
1040
0.0
1070
     0
1070
  1000
1070
     1
1070
     1
1070
     0
1070
     0
1070
     0
1070
     0
1040
0.0
1040
0.0
1040
0.0
1040
0.5
1040
0.5
1040
0.5
1040
0.5
1070
     0
1002
{
1002
}
1002
}
  0
CIRCLE
  5
C3
 67
     1
  8
VISIBLE__ISO_
 10
15.8149145971157807
 20
14.7043825278070894
 30
0.0
 40
0.7500000000000031
  0
CIRCLE
  5
C4
 67
     1
  8
VISIBLE__ISO_
 10
11.8149145971157807
 20
14.7043825278070894
 30
0.0
 40
0.7500000000000031
  0
CIRCLE
  5
C5
 67
     1
  8
VISIBLE__ISO_
 10
7.8149145971157798
 20
14.7043825278070894
 30
0.0
 40
0.7500000000000031
  0
CIRCLE
  5
C6
 67
     1
  8
VISIBLE__ISO_
 10
19.8149145971157807
 20
14.7043825278070894
 30
0.0
 40
0.7500000000000031
  0
LINE
  5
C7
 67
     1
  8
VISIBLE_NARROW__ISO_
 10
-1.8629651814365431
 20
13.6725217825437806
 30
0.0
 11
25.4927943756676498
 21
13.6725217825437806
 31
0.0
  0
POLYLINE
  67
1
  8
VISIBLE_NARROW__ISO_
  5
752
  66
     1
 10
0.000000
 20
0.000000
 30
0.000000
  70
     8
  0
VERTEX
  8
VISIBLE_NARROW__ISO_
  5
753
 10
26.8264
 20
12.3388
 30
0.000000
  70
    32
  0
VERTEX
  8
VISIBLE_NARROW__ISO_
  5
754
 10
26.8264
 20
12.3429
 30
0.000000
  70
    32
  0
VERTEX
  8
VISIBLE_NARROW__ISO_
  5
755
 10
26.8263
 20
12.3470
 30
0.000000
  70
    32
  0
VERTEX
  8
VISIBLE_NARROW__ISO_
  5
756
 10
26.8263
 20
12.3511
 30
0.000000
  70
    32
  0
VERTEX
  8
VISIBLE_NARROW__ISO_
  5
757
 10
26.8263
 20
12.3552
 30
0.000000
  70
    32
  0
VERTEX
  8
VISIBLE_NARROW__ISO_
  5
758
 10
26.8262
 20
12.3593
 30
0.000000
  70
    32
  0
VERTEX
  8
VISIBLE_NARROW__ISO_
  5
759
 10
26.8261
 20
12.3634
 30
0.000000
  70
    32
  0
VERTEX
  8
VISIBLE_NARROW__ISO_
  5
75A
 10
26.8261
 20
12.3675
 30
0.000000
  70
    32
  0
VERTEX
  8
VISIBLE_NARROW__ISO_
  5
75B
 10
26.8260
 20
12.3716
 30
0.000000
  70
    32
  0
VERTEX
  8
VISIBLE_NARROW__ISO_
  5
75C
 10
26.8259
 20
12.3757
 30
0.000000
  70
    32
  0
VERTEX
  8
VISIBLE_NARROW__ISO_
  5
75D
 10
26.8257
 20
12.3798
 30
0.000000
  70
    32
  0
VERTEX
  8
VISIBLE_NARROW__ISO_
  5
75E
 10
26.8256
 20
12.3839
 30
0.000000
  70
    32
  0
VERTEX
  8
VISIBLE_NARROW__ISO_
  5
75F
 10
26.8255
 20
12.3880
 30
0.000000
  70
    32
  0
VERTEX
  8
VISIBLE_NARROW__ISO_
  5
760
 10
26.8253
 20
12.3921
 30
0.000000
  70
    32
  0
VERTEX
  8
VISIBLE_NARROW__ISO_
  5
761
 10
26.8251
 20
12.3962
 30
0.000000
  70
    32
  0
VERTEX
  8
VISIBLE_NARROW__ISO_
  5
762
 10
26.8250
 20
12.4003
 30
0.000000
  70
    32
  0
VERTEX
  8
VISIBLE_NARROW__ISO_
  5
763
 10
26.8248
 20
12.4044
 30
0.000000
  70
    32
  0
VERTEX
  8
VISIBLE_NARROW__ISO_
  5
764
 10
26.8246
 20
12.4085
 30
0.000000
  70
    32
  0
VERTEX
  8
VISIBLE_NARROW__ISO_
  5
765
 10
26.8243
 20
12.4125
 30
0.000000
  70
    32
  0
VERTEX
  8
VISIBLE_NARROW__ISO_
  5
766
 10
26.8241
 20
12.4166
 30
0.000000
  70
    32
  0
VERTEX
  8
VISIBLE_NARROW__ISO_
  5
767
 10
26.8239
 20
12.4207
 30
0.000000
  70
    32
  0
VERTEX
  8
VISIBLE_NARROW__ISO_
  5
768
 10
26.8236
 20
12.4248
 30
0.000000
  70
    32
  0
VERTEX
  8
VISIBLE_NARROW__ISO_
  5
769
 10
26.8233
 20
12.4289
 30
0.000000
  70
    32
  0
VERTEX
  8
VISIBLE_NARROW__ISO_
  5
76A
 10
26.8231
 20
12.4330
 30
0.000000
  70
    32
  0
VERTEX
  8
VISIBLE_NARROW__ISO_
  5
76B
 10
26.8228
 20
12.4371
 30
0.000000
  70
    32
  0
VERTEX
  8
VISIBLE_NARROW__ISO_
  5
76C
 10
26.8225
 20
12.4412
 30
0.000000
  70
    32
  0
VERTEX
  8
VISIBLE_NARROW__ISO_
  5
76D
 10
26.8221
 20
12.4453
 30
0.000000
  70
    32
  0
VERTEX
  8
VISIBLE_NARROW__ISO_
  5
76E
 10
26.8218
 20
12.4494
 30
0.000000
  70
    32
  0
VERTEX
  8
VISIBLE_NARROW__ISO_
  5
76F
 10
26.8215
 20
12.4534
 30
0.000000
  70
    32
  0
VERTEX
  8
VISIBLE_NARROW__ISO_
  5
770
 10
26.8211
 20
12.4575
 30
0.000000
  70
    32
  0
VERTEX
  8
VISIBLE_NARROW__ISO_
  5
771
 10
26.8207
 20
12.4616
 30
0.000000
  70
    32
  0
VERTEX
  8
VISIBLE_NARROW__ISO_
  5
772
 10
26.8204
 20
12.4657
 30
0.000000
  70
    32
  0
VERTEX
  8
VISIBLE_NARROW__ISO_
  5
773
 10
26.8200
 20
12.4698
 30
0.000000
  70
    32
  0
VERTEX
  8
VISIBLE_NARROW__ISO_
  5
774
 10
26.8196
 20
12.4739
 30
0.000000
  70
    32
  0
VERTEX
  8
VISIBLE_NARROW__ISO_
  5
775
 10
26.8191
 20
12.4779
 30
0.000000
  70
    32
  0
VERTEX
  8
VISIBLE_NARROW__ISO_
  5
776
 10
26.8187
 20
12.4820
 30
0.000000
  70
    32
  0
VERTEX
  8
VISIBLE_NARROW__ISO_
  5
777
 10
26.8183
 20
12.4861
 30
0.000000
  70
    32
  0
VERTEX
  8
VISIBLE_NARROW__ISO_
  5
778
 10
26.8178
 20
12.4902
 30
0.000000
  70
    32
  0
VERTEX
  8
VISIBLE_NARROW__ISO_
  5
779
 10
26.8173
 20
12.4942
 30
0.000000
  70
    32
  0
VERTEX
  8
VISIBLE_NARROW__ISO_
  5
77A
 10
26.8168
 20
12.4983
 30
0.000000
  70
    32
  0
VERTEX
  8
VISIBLE_NARROW__ISO_
  5
77B
 10
26.8164
 20
12.5024
 30
0.000000
  70
    32
  0
VERTEX
  8
VISIBLE_NARROW__ISO_
  5
77C
 10
26.8158
 20
12.5064
 30
0.000000
  70
    32
  0
VERTEX
  8
VISIBLE_NARROW__ISO_
  5
77D
 10
26.8153
 20
12.5105
 30
0.000000
  70
    32
  0
VERTEX
  8
VISIBLE_NARROW__ISO_
  5
77E
 10
26.8148
 20
12.5146
 30
0.000000
  70
    32
  0
VERTEX
  8
VISIBLE_NARROW__ISO_
  5
77F
 10
26.8143
 20
12.5186
 30
0.000000
  70
    32
  0
VERTEX
  8
VISIBLE_NARROW__ISO_
  5
780
 10
26.8137
 20
12.5227
 30
0.000000
  70
    32
  0
VERTEX
  8
VISIBLE_NARROW__ISO_
  5
781
 10
26.8131
 20
12.5268
 30
0.000000
  70
    32
  0
VERTEX
  8
VISIBLE_NARROW__ISO_
  5
782
 10
26.8125
 20
12.5308
 30
0.000000
  70
    32
  0
VERTEX
  8
VISIBLE_NARROW__ISO_
  5
783
 10
26.8119
 20
12.5349
 30
0.000000
  70
    32
  0
VERTEX
  8
VISIBLE_NARROW__ISO_
  5
784
 10
26.8113
 20
12.5389
 30
0.000000
  70
    32
  0
VERTEX
  8
VISIBLE_NARROW__ISO_
  5
785
 10
26.8107
 20
12.5430
 30
0.000000
  70
    32
  0
VERTEX
  8
VISIBLE_NARROW__ISO_
  5
786
 10
26.8101
 20
12.5470
 30
0.000000
  70
    32
  0
VERTEX
  8
VISIBLE_NARROW__ISO_
  5
787
 10
26.8094
 20
12.5511
 30
0.000000
  70
    32
  0
VERTEX
  8
VISIBLE_NARROW__ISO_
  5
788
 10
26.8088
 20
12.5551
 30
0.000000
  70
    32
  0
VERTEX
  8
VISIBLE_NARROW__ISO_
  5
789
 10
26.8081
 20
12.5592
 30
0.000000
  70
    32
  0
VERTEX
  8
VISIBLE_NARROW__ISO_
  5
78A
 10
26.8074
 20
12.5632
 30
0.000000
  70
    32
  0
VERTEX
  8
VISIBLE_NARROW__ISO_
  5
78B
 10
26.8067
 20
12.5673
 30
0.000000
  70
    32
  0
VERTEX
  8
VISIBLE_NARROW__ISO_
  5
78C
 10
26.8060
 20
12.5713
 30
0.000000
  70
    32
  0
VERTEX
  8
VISIBLE_NARROW__ISO_
  5
78D
 10
26.8053
 20
12.5753
 30
0.000000
  70
    32
  0
VERTEX
  8
VISIBLE_NARROW__ISO_
  5
78E
 10
26.8046
 20
12.5794
 30
0.000000
  70
    32
  0
VERTEX
  8
VISIBLE_NARROW__ISO_
  5
78F
 10
26.8038
 20
12.5834
 30
0.000000
  70
    32
  0
VERTEX
  8
VISIBLE_NARROW__ISO_
  5
790
 10
26.8031
 20
12.5874
 30
0.000000
  70
    32
  0
VERTEX
  8
VISIBLE_NARROW__ISO_
  5
791
 10
26.8023
 20
12.5915
 30
0.000000
  70
    32
  0
VERTEX
  8
VISIBLE_NARROW__ISO_
  5
792
 10
26.8015
 20
12.5955
 30
0.000000
  70
    32
  0
VERTEX
  8
VISIBLE_NARROW__ISO_
  5
793
 10
26.8007
 20
12.5995
 30
0.000000
  70
    32
  0
VERTEX
  8
VISIBLE_NARROW__ISO_
  5
794
 10
26.7999
 20
12.6035
 30
0.000000
  70
    32
  0
VERTEX
  8
VISIBLE_NARROW__ISO_
  5
795
 10
26.7991
 20
12.6075
 30
0.000000
  70
    32
  0
VERTEX
  8
VISIBLE_NARROW__ISO_
  5
796
 10
26.7983
 20
12.6116
 30
0.000000
  70
    32
  0
VERTEX
  8
VISIBLE_NARROW__ISO_
  5
797
 10
26.7974
 20
12.6156
 30
0.000000
  70
    32
  0
VERTEX
  8
VISIBLE_NARROW__ISO_
  5
798
 10
26.7966
 20
12.6196
 30
0.000000
  70
    32
  0
VERTEX
  8
VISIBLE_NARROW__ISO_
  5
799
 10
26.7957
 20
12.6236
 30
0.000000
  70
    32
  0
VERTEX
  8
VISIBLE_NARROW__ISO_
  5
79A
 10
26.7948
 20
12.6276
 30
0.000000
  70
    32
  0
VERTEX
  8
VISIBLE_NARROW__ISO_
  5
79B
 10
26.7939
 20
12.6316
 30
0.000000
  70
    32
  0
VERTEX
  8
VISIBLE_NARROW__ISO_
  5
79C
 10
26.7930
 20
12.6356
 30
0.000000
  70
    32
  0
VERTEX
  8
VISIBLE_NARROW__ISO_
  5
79D
 10
26.7921
 20
12.6396
 30
0.000000
  70
    32
  0
VERTEX
  8
VISIBLE_NARROW__ISO_
  5
79E
 10
26.7912
 20
12.6436
 30
0.000000
  70
    32
  0
VERTEX
  8
VISIBLE_NARROW__ISO_
  5
79F
 10
26.7903
 20
12.6476
 30
0.000000
  70
    32
  0
VERTEX
  8
VISIBLE_NARROW__ISO_
  5
7A0
 10
26.7893
 20
12.6516
 30
0.000000
  70
    32
  0
VERTEX
  8
VISIBLE_NARROW__ISO_
  5
7A1
 10
26.7883
 20
12.6555
 30
0.000000
  70
    32
  0
VERTEX
  8
VISIBLE_NARROW__ISO_
  5
7A2
 10
26.7874
 20
12.6595
 30
0.000000
  70
    32
  0
VERTEX
  8
VISIBLE_NARROW__ISO_
  5
7A3
 10
26.7864
 20
12.6635
 30
0.000000
  70
    32
  0
VERTEX
  8
VISIBLE_NARROW__ISO_
  5
7A4
 10
26.7854
 20
12.6675
 30
0.000000
  70
    32
  0
VERTEX
  8
VISIBLE_NARROW__ISO_
  5
7A5
 10
26.7843
 20
12.6715
 30
0.000000
  70
    32
  0
VERTEX
  8
VISIBLE_NARROW__ISO_
  5
7A6
 10
26.7833
 20
12.6754
 30
0.000000
  70
    32
  0
VERTEX
  8
VISIBLE_NARROW__ISO_
  5
7A7
 10
26.7823
 20
12.6794
 30
0.000000
  70
    32
  0
VERTEX
  8
VISIBLE_NARROW__ISO_
  5
7A8
 10
26.7812
 20
12.6834
 30
0.000000
  70
    32
  0
VERTEX
  8
VISIBLE_NARROW__ISO_
  5
7A9
 10
26.7802
 20
12.6873
 30
0.000000
  70
    32
  0
VERTEX
  8
VISIBLE_NARROW__ISO_
  5
7AA
 10
26.7791
 20
12.6913
 30
0.000000
  70
    32
  0
VERTEX
  8
VISIBLE_NARROW__ISO_
  5
7AB
 10
26.7780
 20
12.6952
 30
0.000000
  70
    32
  0
VERTEX
  8
VISIBLE_NARROW__ISO_
  5
7AC
 10
26.7769
 20
12.6992
 30
0.000000
  70
    32
  0
VERTEX
  8
VISIBLE_NARROW__ISO_
  5
7AD
 10
26.7758
 20
12.7031
 30
0.000000
  70
    32
  0
VERTEX
  8
VISIBLE_NARROW__ISO_
  5
7AE
 10
26.7747
 20
12.7071
 30
0.000000
  70
    32
  0
VERTEX
  8
VISIBLE_NARROW__ISO_
  5
7AF
 10
26.7735
 20
12.7110
 30
0.000000
  70
    32
  0
VERTEX
  8
VISIBLE_NARROW__ISO_
  5
7B0
 10
26.7724
 20
12.7149
 30
0.000000
  70
    32
  0
VERTEX
  8
VISIBLE_NARROW__ISO_
  5
7B1
 10
26.7712
 20
12.7189
 30
0.000000
  70
    32
  0
VERTEX
  8
VISIBLE_NARROW__ISO_
  5
7B2
 10
26.7700
 20
12.7228
 30
0.000000
  70
    32
  0
VERTEX
  8
VISIBLE_NARROW__ISO_
  5
7B3
 10
26.7689
 20
12.7267
 30
0.000000
  70
    32
  0
VERTEX
  8
VISIBLE_NARROW__ISO_
  5
7B4
 10
26.7677
 20
12.7306
 30
0.000000
  70
    32
  0
VERTEX
  8
VISIBLE_NARROW__ISO_
  5
7B5
 10
26.7665
 20
12.7346
 30
0.000000
  70
    32
  0
VERTEX
  8
VISIBLE_NARROW__ISO_
  5
7B6
 10
26.7652
 20
12.7385
 30
0.000000
  70
    32
  0
VERTEX
  8
VISIBLE_NARROW__ISO_
  5
7B7
 10
26.7640
 20
12.7424
 30
0.000000
  70
    32
  0
VERTEX
  8
VISIBLE_NARROW__ISO_
  5
7B8
 10
26.7628
 20
12.7463
 30
0.000000
  70
    32
  0
VERTEX
  8
VISIBLE_NARROW__ISO_
  5
7B9
 10
26.7615
 20
12.7502
 30
0.000000
  70
    32
  0
VERTEX
  8
VISIBLE_NARROW__ISO_
  5
7BA
 10
26.7602
 20
12.7541
 30
0.000000
  70
    32
  0
VERTEX
  8
VISIBLE_NARROW__ISO_
  5
7BB
 10
26.7590
 20
12.7580
 30
0.000000
  70
    32
  0
VERTEX
  8
VISIBLE_NARROW__ISO_
  5
7BC
 10
26.7577
 20
12.7619
 30
0.000000
  70
    32
  0
VERTEX
  8
VISIBLE_NARROW__ISO_
  5
7BD
 10
26.7564
 20
12.7658
 30
0.000000
  70
    32
  0
VERTEX
  8
VISIBLE_NARROW__ISO_
  5
7BE
 10
26.7550
 20
12.7697
 30
0.000000
  70
    32
  0
VERTEX
  8
VISIBLE_NARROW__ISO_
  5
7BF
 10
26.7537
 20
12.7735
 30
0.000000
  70
    32
  0
VERTEX
  8
VISIBLE_NARROW__ISO_
  5
7C0
 10
26.7524
 20
12.7774
 30
0.000000
  70
    32
  0
VERTEX
  8
VISIBLE_NARROW__ISO_
  5
7C1
 10
26.7510
 20
12.7813
 30
0.000000
  70
    32
  0
VERTEX
  8
VISIBLE_NARROW__ISO_
  5
7C2
 10
26.7497
 20
12.7852
 30
0.000000
  70
    32
  0
VERTEX
  8
VISIBLE_NARROW__ISO_
  5
7C3
 10
26.7483
 20
12.7890
 30
0.000000
  70
    32
  0
VERTEX
  8
VISIBLE_NARROW__ISO_
  5
7C4
 10
26.7469
 20
12.7929
 30
0.000000
  70
    32
  0
VERTEX
  8
VISIBLE_NARROW__ISO_
  5
7C5
 10
26.7455
 20
12.7967
 30
0.000000
  70
    32
  0
VERTEX
  8
VISIBLE_NARROW__ISO_
  5
7C6
 10
26.7441
 20
12.8006
 30
0.000000
  70
    32
  0
VERTEX
  8
VISIBLE_NARROW__ISO_
  5
7C7
 10
26.7427
 20
12.8044
 30
0.000000
  70
    32
  0
VERTEX
  8
VISIBLE_NARROW__ISO_
  5
7C8
 10
26.7412
 20
12.8083
 30
0.000000
  70
    32
  0
VERTEX
  8
VISIBLE_NARROW__ISO_
  5
7C9
 10
26.7398
 20
12.8121
 30
0.000000
  70
    32
  0
VERTEX
  8
VISIBLE_NARROW__ISO_
  5
7CA
 10
26.7383
 20
12.8159
 30
0.000000
  70
    32
  0
VERTEX
  8
VISIBLE_NARROW__ISO_
  5
7CB
 10
26.7369
 20
12.8198
 30
0.000000
  70
    32
  0
VERTEX
  8
VISIBLE_NARROW__ISO_
  5
7CC
 10
26.7354
 20
12.8236
 30
0.000000
  70
    32
  0
VERTEX
  8
VISIBLE_NARROW__ISO_
  5
7CD
 10
26.7339
 20
12.8274
 30
0.000000
  70
    32
  0
VERTEX
  8
VISIBLE_NARROW__ISO_
  5
7CE
 10
26.7324
 20
12.8312
 30
0.000000
  70
    32
  0
VERTEX
  8
VISIBLE_NARROW__ISO_
  5
7CF
 10
26.7309
 20
12.8350
 30
0.000000
  70
    32
  0
VERTEX
  8
VISIBLE_NARROW__ISO_
  5
7D0
 10
26.7293
 20
12.8388
 30
0.000000
  70
    32
  0
VERTEX
  8
VISIBLE_NARROW__ISO_
  5
7D1
 10
26.7278
 20
12.8426
 30
0.000000
  70
    32
  0
VERTEX
  8
VISIBLE_NARROW__ISO_
  5
7D2
 10
26.7262
 20
12.8464
 30
0.000000
  70
    32
  0
VERTEX
  8
VISIBLE_NARROW__ISO_
  5
7D3
 10
26.7247
 20
12.8502
 30
0.000000
  70
    32
  0
VERTEX
  8
VISIBLE_NARROW__ISO_
  5
7D4
 10
26.7231
 20
12.8540
 30
0.000000
  70
    32
  0
VERTEX
  8
VISIBLE_NARROW__ISO_
  5
7D5
 10
26.7215
 20
12.8578
 30
0.000000
  70
    32
  0
VERTEX
  8
VISIBLE_NARROW__ISO_
  5
7D6
 10
26.7199
 20
12.8616
 30
0.000000
  70
    32
  0
VERTEX
  8
VISIBLE_NARROW__ISO_
  5
7D7
 10
26.7183
 20
12.8653
 30
0.000000
  70
    32
  0
VERTEX
  8
VISIBLE_NARROW__ISO_
  5
7D8
 10
26.7167
 20
12.8691
 30
0.000000
  70
    32
  0
VERTEX
  8
VISIBLE_NARROW__ISO_
  5
7D9
 10
26.7150
 20
12.8729
 30
0.000000
  70
    32
  0
VERTEX
  8
VISIBLE_NARROW__ISO_
  5
7DA
 10
26.7134
 20
12.8766
 30
0.000000
  70
    32
  0
VERTEX
  8
VISIBLE_NARROW__ISO_
  5
7DB
 10
26.7117
 20
12.8804
 30
0.000000
  70
    32
  0
VERTEX
  8
VISIBLE_NARROW__ISO_
  5
7DC
 10
26.7101
 20
12.8841
 30
0.000000
  70
    32
  0
VERTEX
  8
VISIBLE_NARROW__ISO_
  5
7DD
 10
26.7084
 20
12.8879
 30
0.000000
  70
    32
  0
VERTEX
  8
VISIBLE_NARROW__ISO_
  5
7DE
 10
26.7067
 20
12.8916
 30
0.000000
  70
    32
  0
VERTEX
  8
VISIBLE_NARROW__ISO_
  5
7DF
 10
26.7050
 20
12.8953
 30
0.000000
  70
    32
  0
VERTEX
  8
VISIBLE_NARROW__ISO_
  5
7E0
 10
26.7033
 20
12.8990
 30
0.000000
  70
    32
  0
VERTEX
  8
VISIBLE_NARROW__ISO_
  5
7E1
 10
26.7016
 20
12.9028
 30
0.000000
  70
    32
  0
VERTEX
  8
VISIBLE_NARROW__ISO_
  5
7E2
 10
26.6998
 20
12.9065
 30
0.000000
  70
    32
  0
VERTEX
  8
VISIBLE_NARROW__ISO_
  5
7E3
 10
26.6981
 20
12.9102
 30
0.000000
  70
    32
  0
VERTEX
  8
VISIBLE_NARROW__ISO_
  5
7E4
 10
26.6963
 20
12.9139
 30
0.000000
  70
    32
  0
VERTEX
  8
VISIBLE_NARROW__ISO_
  5
7E5
 10
26.6945
 20
12.9176
 30
0.000000
  70
    32
  0
VERTEX
  8
VISIBLE_NARROW__ISO_
  5
7E6
 10
26.6928
 20
12.9213
 30
0.000000
  70
    32
  0
VERTEX
  8
VISIBLE_NARROW__ISO_
  5
7E7
 10
26.6910
 20
12.9250
 30
0.000000
  70
    32
  0
VERTEX
  8
VISIBLE_NARROW__ISO_
  5
7E8
 10
26.6892
 20
12.9287
 30
0.000000
  70
    32
  0
VERTEX
  8
VISIBLE_NARROW__ISO_
  5
7E9
 10
26.6873
 20
12.9323
 30
0.000000
  70
    32
  0
VERTEX
  8
VISIBLE_NARROW__ISO_
  5
7EA
 10
26.6855
 20
12.9360
 30
0.000000
  70
    32
  0
VERTEX
  8
VISIBLE_NARROW__ISO_
  5
7EB
 10
26.6837
 20
12.9397
 30
0.000000
  70
    32
  0
VERTEX
  8
VISIBLE_NARROW__ISO_
  5
7EC
 10
26.6818
 20
12.9433
 30
0.000000
  70
    32
  0
VERTEX
  8
VISIBLE_NARROW__ISO_
  5
7ED
 10
26.6800
 20
12.9470
 30
0.000000
  70
    32
  0
VERTEX
  8
VISIBLE_NARROW__ISO_
  5
7EE
 10
26.6781
 20
12.9506
 30
0.000000
  70
    32
  0
VERTEX
  8
VISIBLE_NARROW__ISO_
  5
7EF
 10
26.6762
 20
12.9543
 30
0.000000
  70
    32
  0
VERTEX
  8
VISIBLE_NARROW__ISO_
  5
7F0
 10
26.6743
 20
12.9579
 30
0.000000
  70
    32
  0
VERTEX
  8
VISIBLE_NARROW__ISO_
  5
7F1
 10
26.6724
 20
12.9615
 30
0.000000
  70
    32
  0
VERTEX
  8
VISIBLE_NARROW__ISO_
  5
7F2
 10
26.6705
 20
12.9652
 30
0.000000
  70
    32
  0
VERTEX
  8
VISIBLE_NARROW__ISO_
  5
7F3
 10
26.6685
 20
12.9688
 30
0.000000
  70
    32
  0
VERTEX
  8
VISIBLE_NARROW__ISO_
  5
7F4
 10
26.6666
 20
12.9724
 30
0.000000
  70
    32
  0
VERTEX
  8
VISIBLE_NARROW__ISO_
  5
7F5
 10
26.6646
 20
12.9760
 30
0.000000
  70
    32
  0
VERTEX
  8
VISIBLE_NARROW__ISO_
  5
7F6
 10
26.6627
 20
12.9796
 30
0.000000
  70
    32
  0
VERTEX
  8
VISIBLE_NARROW__ISO_
  5
7F7
 10
26.6607
 20
12.9832
 30
0.000000
  70
    32
  0
VERTEX
  8
VISIBLE_NARROW__ISO_
  5
7F8
 10
26.6587
 20
12.9868
 30
0.000000
  70
    32
  0
VERTEX
  8
VISIBLE_NARROW__ISO_
  5
7F9
 10
26.6567
 20
12.9904
 30
0.000000
  70
    32
  0
VERTEX
  8
VISIBLE_NARROW__ISO_
  5
7FA
 10
26.6547
 20
12.9939
 30
0.000000
  70
    32
  0
VERTEX
  8
VISIBLE_NARROW__ISO_
  5
7FB
 10
26.6527
 20
12.9975
 30
0.000000
  70
    32
  0
VERTEX
  8
VISIBLE_NARROW__ISO_
  5
7FC
 10
26.6507
 20
13.0011
 30
0.000000
  70
    32
  0
VERTEX
  8
VISIBLE_NARROW__ISO_
  5
7FD
 10
26.6486
 20
13.0046
 30
0.000000
  70
    32
  0
VERTEX
  8
VISIBLE_NARROW__ISO_
  5
7FE
 10
26.6466
 20
13.0082
 30
0.000000
  70
    32
  0
VERTEX
  8
VISIBLE_NARROW__ISO_
  5
7FF
 10
26.6445
 20
13.0117
 30
0.000000
  70
    32
  0
VERTEX
  8
VISIBLE_NARROW__ISO_
  5
800
 10
26.6424
 20
13.0153
 30
0.000000
  70
    32
  0
VERTEX
  8
VISIBLE_NARROW__ISO_
  5
801
 10
26.6404
 20
13.0188
 30
0.000000
  70
    32
  0
VERTEX
  8
VISIBLE_NARROW__ISO_
  5
802
 10
26.6383
 20
13.0223
 30
0.000000
  70
    32
  0
VERTEX
  8
VISIBLE_NARROW__ISO_
  5
803
 10
26.6362
 20
13.0258
 30
0.000000
  70
    32
  0
VERTEX
  8
VISIBLE_NARROW__ISO_
  5
804
 10
26.6340
 20
13.0293
 30
0.000000
  70
    32
  0
VERTEX
  8
VISIBLE_NARROW__ISO_
  5
805
 10
26.6319
 20
13.0328
 30
0.000000
  70
    32
  0
VERTEX
  8
VISIBLE_NARROW__ISO_
  5
806
 10
26.6298
 20
13.0363
 30
0.000000
  70
    32
  0
VERTEX
  8
VISIBLE_NARROW__ISO_
  5
807
 10
26.6276
 20
13.0398
 30
0.000000
  70
    32
  0
VERTEX
  8
VISIBLE_NARROW__ISO_
  5
808
 10
26.6255
 20
13.0433
 30
0.000000
  70
    32
  0
VERTEX
  8
VISIBLE_NARROW__ISO_
  5
809
 10
26.6233
 20
13.0468
 30
0.000000
  70
    32
  0
VERTEX
  8
VISIBLE_NARROW__ISO_
  5
80A
 10
26.6211
 20
13.0503
 30
0.000000
  70
    32
  0
VERTEX
  8
VISIBLE_NARROW__ISO_
  5
80B
 10
26.6189
 20
13.0537
 30
0.000000
  70
    32
  0
VERTEX
  8
VISIBLE_NARROW__ISO_
  5
80C
 10
26.6167
 20
13.0572
 30
0.000000
  70
    32
  0
VERTEX
  8
VISIBLE_NARROW__ISO_
  5
80D
 10
26.6145
 20
13.0607
 30
0.000000
  70
    32
  0
VERTEX
  8
VISIBLE_NARROW__ISO_
  5
80E
 10
26.6123
 20
13.0641
 30
0.000000
  70
    32
  0
VERTEX
  8
VISIBLE_NARROW__ISO_
  5
80F
 10
26.6101
 20
13.0675
 30
0.000000
  70
    32
  0
VERTEX
  8
VISIBLE_NARROW__ISO_
  5
810
 10
26.6078
 20
13.0710
 30
0.000000
  70
    32
  0
VERTEX
  8
VISIBLE_NARROW__ISO_
  5
811
 10
26.6056
 20
13.0744
 30
0.000000
  70
    32
  0
VERTEX
  8
VISIBLE_NARROW__ISO_
  5
812
 10
26.6033
 20
13.0778
 30
0.000000
  70
    32
  0
VERTEX
  8
VISIBLE_NARROW__ISO_
  5
813
 10
26.6010
 20
13.0812
 30
0.000000
  70
    32
  0
VERTEX
  8
VISIBLE_NARROW__ISO_
  5
814
 10
26.5987
 20
13.0846
 30
0.000000
  70
    32
  0
VERTEX
  8
VISIBLE_NARROW__ISO_
  5
815
 10
26.5964
 20
13.0880
 30
0.000000
  70
    32
  0
VERTEX
  8
VISIBLE_NARROW__ISO_
  5
816
 10
26.5941
 20
13.0914
 30
0.000000
  70
    32
  0
VERTEX
  8
VISIBLE_NARROW__ISO_
  5
817
 10
26.5918
 20
13.0948
 30
0.000000
  70
    32
  0
VERTEX
  8
VISIBLE_NARROW__ISO_
  5
818
 10
26.5895
 20
13.0982
 30
0.000000
  70
    32
  0
VERTEX
  8
VISIBLE_NARROW__ISO_
  5
819
 10
26.5871
 20
13.1016
 30
0.000000
  70
    32
  0
VERTEX
  8
VISIBLE_NARROW__ISO_
  5
81A
 10
26.5848
 20
13.1049
 30
0.000000
  70
    32
  0
VERTEX
  8
VISIBLE_NARROW__ISO_
  5
81B
 10
26.5824
 20
13.1083
 30
0.000000
  70
    32
  0
VERTEX
  8
VISIBLE_NARROW__ISO_
  5
81C
 10
26.5801
 20
13.1116
 30
0.000000
  70
    32
  0
VERTEX
  8
VISIBLE_NARROW__ISO_
  5
81D
 10
26.5777
 20
13.1150
 30
0.000000
  70
    32
  0
VERTEX
  8
VISIBLE_NARROW__ISO_
  5
81E
 10
26.5753
 20
13.1183
 30
0.000000
  70
    32
  0
VERTEX
  8
VISIBLE_NARROW__ISO_
  5
81F
 10
26.5729
 20
13.1216
 30
0.000000
  70
    32
  0
VERTEX
  8
VISIBLE_NARROW__ISO_
  5
820
 10
26.5705
 20
13.1249
 30
0.000000
  70
    32
  0
VERTEX
  8
VISIBLE_NARROW__ISO_
  5
821
 10
26.5681
 20
13.1282
 30
0.000000
  70
    32
  0
VERTEX
  8
VISIBLE_NARROW__ISO_
  5
822
 10
26.5656
 20
13.1315
 30
0.000000
  70
    32
  0
VERTEX
  8
VISIBLE_NARROW__ISO_
  5
823
 10
26.5632
 20
13.1348
 30
0.000000
  70
    32
  0
VERTEX
  8
VISIBLE_NARROW__ISO_
  5
824
 10
26.5607
 20
13.1381
 30
0.000000
  70
    32
  0
VERTEX
  8
VISIBLE_NARROW__ISO_
  5
825
 10
26.5583
 20
13.1414
 30
0.000000
  70
    32
  0
VERTEX
  8
VISIBLE_NARROW__ISO_
  5
826
 10
26.5558
 20
13.1447
 30
0.000000
  70
    32
  0
VERTEX
  8
VISIBLE_NARROW__ISO_
  5
827
 10
26.5533
 20
13.1479
 30
0.000000
  70
    32
  0
VERTEX
  8
VISIBLE_NARROW__ISO_
  5
828
 10
26.5508
 20
13.1512
 30
0.000000
  70
    32
  0
VERTEX
  8
VISIBLE_NARROW__ISO_
  5
829
 10
26.5483
 20
13.1545
 30
0.000000
  70
    32
  0
VERTEX
  8
VISIBLE_NARROW__ISO_
  5
82A
 10
26.5458
 20
13.1577
 30
0.000000
  70
    32
  0
VERTEX
  8
VISIBLE_NARROW__ISO_
  5
82B
 10
26.5433
 20
13.1609
 30
0.000000
  70
    32
  0
VERTEX
  8
VISIBLE_NARROW__ISO_
  5
82C
 10
26.5408
 20
13.1642
 30
0.000000
  70
    32
  0
VERTEX
  8
VISIBLE_NARROW__ISO_
  5
82D
 10
26.5382
 20
13.1674
 30
0.000000
  70
    32
  0
VERTEX
  8
VISIBLE_NARROW__ISO_
  5
82E
 10
26.5357
 20
13.1706
 30
0.000000
  70
    32
  0
VERTEX
  8
VISIBLE_NARROW__ISO_
  5
82F
 10
26.5331
 20
13.1738
 30
0.000000
  70
    32
  0
VERTEX
  8
VISIBLE_NARROW__ISO_
  5
830
 10
26.5305
 20
13.1770
 30
0.000000
  70
    32
  0
VERTEX
  8
VISIBLE_NARROW__ISO_
  5
831
 10
26.5280
 20
13.1802
 30
0.000000
  70
    32
  0
VERTEX
  8
VISIBLE_NARROW__ISO_
  5
832
 10
26.5254
 20
13.1834
 30
0.000000
  70
    32
  0
VERTEX
  8
VISIBLE_NARROW__ISO_
  5
833
 10
26.5228
 20
13.1865
 30
0.000000
  70
    32
  0
VERTEX
  8
VISIBLE_NARROW__ISO_
  5
834
 10
26.5202
 20
13.1897
 30
0.000000
  70
    32
  0
VERTEX
  8
VISIBLE_NARROW__ISO_
  5
835
 10
26.5175
 20
13.1928
 30
0.000000
  70
    32
  0
VERTEX
  8
VISIBLE_NARROW__ISO_
  5
836
 10
26.5149
 20
13.1960
 30
0.000000
  70
    32
  0
VERTEX
  8
VISIBLE_NARROW__ISO_
  5
837
 10
26.5123
 20
13.1991
 30
0.000000
  70
    32
  0
VERTEX
  8
VISIBLE_NARROW__ISO_
  5
838
 10
26.5096
 20
13.2023
 30
0.000000
  70
    32
  0
VERTEX
  8
VISIBLE_NARROW__ISO_
  5
839
 10
26.5070
 20
13.2054
 30
0.000000
  70
    32
  0
VERTEX
  8
VISIBLE_NARROW__ISO_
  5
83A
 10
26.5043
 20
13.2085
 30
0.000000
  70
    32
  0
VERTEX
  8
VISIBLE_NARROW__ISO_
  5
83B
 10
26.5016
 20
13.2116
 30
0.000000
  70
    32
  0
VERTEX
  8
VISIBLE_NARROW__ISO_
  5
83C
 10
26.4989
 20
13.2147
 30
0.000000
  70
    32
  0
VERTEX
  8
VISIBLE_NARROW__ISO_
  5
83D
 10
26.4962
 20
13.2178
 30
0.000000
  70
    32
  0
VERTEX
  8
VISIBLE_NARROW__ISO_
  5
83E
 10
26.4935
 20
13.2209
 30
0.000000
  70
    32
  0
VERTEX
  8
VISIBLE_NARROW__ISO_
  5
83F
 10
26.4908
 20
13.2239
 30
0.000000
  70
    32
  0
VERTEX
  8
VISIBLE_NARROW__ISO_
  5
840
 10
26.4881
 20
13.2270
 30
0.000000
  70
    32
  0
VERTEX
  8
VISIBLE_NARROW__ISO_
  5
841
 10
26.4854
 20
13.2301
 30
0.000000
  70
    32
  0
VERTEX
  8
VISIBLE_NARROW__ISO_
  5
842
 10
26.4826
 20
13.2331
 30
0.000000
  70
    32
  0
VERTEX
  8
VISIBLE_NARROW__ISO_
  5
843
 10
26.4799
 20
13.2362
 30
0.000000
  70
    32
  0
VERTEX
  8
VISIBLE_NARROW__ISO_
  5
844
 10
26.4771
 20
13.2392
 30
0.000000
  70
    32
  0
VERTEX
  8
VISIBLE_NARROW__ISO_
  5
845
 10
26.4743
 20
13.2422
 30
0.000000
  70
    32
  0
VERTEX
  8
VISIBLE_NARROW__ISO_
  5
846
 10
26.4715
 20
13.2452
 30
0.000000
  70
    32
  0
VERTEX
  8
VISIBLE_NARROW__ISO_
  5
847
 10
26.4687
 20
13.2482
 30
0.000000
  70
    32
  0
VERTEX
  8
VISIBLE_NARROW__ISO_
  5
848
 10
26.4659
 20
13.2512
 30
0.000000
  70
    32
  0
VERTEX
  8
VISIBLE_NARROW__ISO_
  5
849
 10
26.4631
 20
13.2542
 30
0.000000
  70
    32
  0
VERTEX
  8
VISIBLE_NARROW__ISO_
  5
84A
 10
26.4603
 20
13.2572
 30
0.000000
  70
    32
  0
VERTEX
  8
VISIBLE_NARROW__ISO_
  5
84B
 10
26.4575
 20
13.2602
 30
0.000000
  70
    32
  0
VERTEX
  8
VISIBLE_NARROW__ISO_
  5
84C
 10
26.4547
 20
13.2631
 30
0.000000
  70
    32
  0
VERTEX
  8
VISIBLE_NARROW__ISO_
  5
84D
 10
26.4518
 20
13.2661
 30
0.000000
  70
    32
  0
VERTEX
  8
VISIBLE_NARROW__ISO_
  5
84E
 10
26.4489
 20
13.2690
 30
0.000000
  70
    32
  0
VERTEX
  8
VISIBLE_NARROW__ISO_
  5
84F
 10
26.4461
 20
13.2719
 30
0.000000
  70
    32
  0
VERTEX
  8
VISIBLE_NARROW__ISO_
  5
850
 10
26.4432
 20
13.2749
 30
0.000000
  70
    32
  0
VERTEX
  8
VISIBLE_NARROW__ISO_
  5
851
 10
26.4403
 20
13.2778
 30
0.000000
  70
    32
  0
VERTEX
  8
VISIBLE_NARROW__ISO_
  5
852
 10
26.4374
 20
13.2807
 30
0.000000
  70
    32
  0
VERTEX
  8
VISIBLE_NARROW__ISO_
  5
853
 10
26.4345
 20
13.2836
 30
0.000000
  70
    32
  0
VERTEX
  8
VISIBLE_NARROW__ISO_
  5
854
 10
26.4316
 20
13.2865
 30
0.000000
  70
    32
  0
VERTEX
  8
VISIBLE_NARROW__ISO_
  5
855
 10
26.4287
 20
13.2894
 30
0.000000
  70
    32
  0
VERTEX
  8
VISIBLE_NARROW__ISO_
  5
856
 10
26.4258
 20
13.2922
 30
0.000000
  70
    32
  0
VERTEX
  8
VISIBLE_NARROW__ISO_
  5
857
 10
26.4228
 20
13.2951
 30
0.000000
  70
    32
  0
VERTEX
  8
VISIBLE_NARROW__ISO_
  5
858
 10
26.4199
 20
13.2980
 30
0.000000
  70
    32
  0
VERTEX
  8
VISIBLE_NARROW__ISO_
  5
859
 10
26.4169
 20
13.3008
 30
0.000000
  70
    32
  0
VERTEX
  8
VISIBLE_NARROW__ISO_
  5
85A
 10
26.4140
 20
13.3036
 30
0.000000
  70
    32
  0
VERTEX
  8
VISIBLE_NARROW__ISO_
  5
85B
 10
26.4110
 20
13.3065
 30
0.000000
  70
    32
  0
VERTEX
  8
VISIBLE_NARROW__ISO_
  5
85C
 10
26.4080
 20
13.3093
 30
0.000000
  70
    32
  0
VERTEX
  8
VISIBLE_NARROW__ISO_
  5
85D
 10
26.4050
 20
13.3121
 30
0.000000
  70
    32
  0
VERTEX
  8
VISIBLE_NARROW__ISO_
  5
85E
 10
26.4021
 20
13.3149
 30
0.000000
  70
    32
  0
VERTEX
  8
VISIBLE_NARROW__ISO_
  5
85F
 10
26.3990
 20
13.3177
 30
0.000000
  70
    32
  0
VERTEX
  8
VISIBLE_NARROW__ISO_
  5
860
 10
26.3960
 20
13.3205
 30
0.000000
  70
    32
  0
VERTEX
  8
VISIBLE_NARROW__ISO_
  5
861
 10
26.3930
 20
13.3232
 30
0.000000
  70
    32
  0
VERTEX
  8
VISIBLE_NARROW__ISO_
  5
862
 10
26.3900
 20
13.3260
 30
0.000000
  70
    32
  0
VERTEX
  8
VISIBLE_NARROW__ISO_
  5
863
 10
26.3869
 20
13.3288
 30
0.000000
  70
    32
  0
VERTEX
  8
VISIBLE_NARROW__ISO_
  5
864
 10
26.3839
 20
13.3315
 30
0.000000
  70
    32
  0
VERTEX
  8
VISIBLE_NARROW__ISO_
  5
865
 10
26.3808
 20
13.3342
 30
0.000000
  70
    32
  0
VERTEX
  8
VISIBLE_NARROW__ISO_
  5
866
 10
26.3778
 20
13.3370
 30
0.000000
  70
    32
  0
VERTEX
  8
VISIBLE_NARROW__ISO_
  5
867
 10
26.3747
 20
13.3397
 30
0.000000
  70
    32
  0
VERTEX
  8
VISIBLE_NARROW__ISO_
  5
868
 10
26.3716
 20
13.3424
 30
0.000000
  70
    32
  0
VERTEX
  8
VISIBLE_NARROW__ISO_
  5
869
 10
26.3685
 20
13.3451
 30
0.000000
  70
    32
  0
VERTEX
  8
VISIBLE_NARROW__ISO_
  5
86A
 10
26.3654
 20
13.3478
 30
0.000000
  70
    32
  0
VERTEX
  8
VISIBLE_NARROW__ISO_
  5
86B
 10
26.3623
 20
13.3504
 30
0.000000
  70
    32
  0
VERTEX
  8
VISIBLE_NARROW__ISO_
  5
86C
 10
26.3592
 20
13.3531
 30
0.000000
  70
    32
  0
VERTEX
  8
VISIBLE_NARROW__ISO_
  5
86D
 10
26.3561
 20
13.3558
 30
0.000000
  70
    32
  0
VERTEX
  8
VISIBLE_NARROW__ISO_
  5
86E
 10
26.3530
 20
13.3584
 30
0.000000
  70
    32
  0
VERTEX
  8
VISIBLE_NARROW__ISO_
  5
86F
 10
26.3498
 20
13.3611
 30
0.000000
  70
    32
  0
VERTEX
  8
VISIBLE_NARROW__ISO_
  5
870
 10
26.3467
 20
13.3637
 30
0.000000
  70
    32
  0
VERTEX
  8
VISIBLE_NARROW__ISO_
  5
871
 10
26.3435
 20
13.3663
 30
0.000000
  70
    32
  0
VERTEX
  8
VISIBLE_NARROW__ISO_
  5
872
 10
26.3404
 20
13.3689
 30
0.000000
  70
    32
  0
VERTEX
  8
VISIBLE_NARROW__ISO_
  5
873
 10
26.3372
 20
13.3715
 30
0.000000
  70
    32
  0
VERTEX
  8
VISIBLE_NARROW__ISO_
  5
874
 10
26.3340
 20
13.3741
 30
0.000000
  70
    32
  0
VERTEX
  8
VISIBLE_NARROW__ISO_
  5
875
 10
26.3308
 20
13.3767
 30
0.000000
  70
    32
  0
VERTEX
  8
VISIBLE_NARROW__ISO_
  5
876
 10
26.3276
 20
13.3793
 30
0.000000
  70
    32
  0
VERTEX
  8
VISIBLE_NARROW__ISO_
  5
877
 10
26.3244
 20
13.3818
 30
0.000000
  70
    32
  0
VERTEX
  8
VISIBLE_NARROW__ISO_
  5
878
 10
26.3212
 20
13.3844
 30
0.000000
  70
    32
  0
VERTEX
  8
VISIBLE_NARROW__ISO_
  5
879
 10
26.3180
 20
13.3869
 30
0.000000
  70
    32
  0
VERTEX
  8
VISIBLE_NARROW__ISO_
  5
87A
 10
26.3148
 20
13.3895
 30
0.000000
  70
    32
  0
VERTEX
  8
VISIBLE_NARROW__ISO_
  5
87B
 10
26.3115
 20
13.3920
 30
0.000000
  70
    32
  0
VERTEX
  8
VISIBLE_NARROW__ISO_
  5
87C
 10
26.3083
 20
13.3945
 30
0.000000
  70
    32
  0
VERTEX
  8
VISIBLE_NARROW__ISO_
  5
87D
 10
26.3050
 20
13.3970
 30
0.000000
  70
    32
  0
VERTEX
  8
VISIBLE_NARROW__ISO_
  5
87E
 10
26.3018
 20
13.3995
 30
0.000000
  70
    32
  0
VERTEX
  8
VISIBLE_NARROW__ISO_
  5
87F
 10
26.2985
 20
13.4020
 30
0.000000
  70
    32
  0
VERTEX
  8
VISIBLE_NARROW__ISO_
  5
880
 10
26.2952
 20
13.4044
 30
0.000000
  70
    32
  0
VERTEX
  8
VISIBLE_NARROW__ISO_
  5
881
 10
26.2920
 20
13.4069
 30
0.000000
  70
    32
  0
VERTEX
  8
VISIBLE_NARROW__ISO_
  5
882
 10
26.2887
 20
13.4094
 30
0.000000
  70
    32
  0
VERTEX
  8
VISIBLE_NARROW__ISO_
  5
883
 10
26.2854
 20
13.4118
 30
0.000000
  70
    32
  0
VERTEX
  8
VISIBLE_NARROW__ISO_
  5
884
 10
26.2821
 20
13.4142
 30
0.000000
  70
    32
  0
VERTEX
  8
VISIBLE_NARROW__ISO_
  5
885
 10
26.2788
 20
13.4166
 30
0.000000
  70
    32
  0
VERTEX
  8
VISIBLE_NARROW__ISO_
  5
886
 10
26.2755
 20
13.4191
 30
0.000000
  70
    32
  0
VERTEX
  8
VISIBLE_NARROW__ISO_
  5
887
 10
26.2721
 20
13.4215
 30
0.000000
  70
    32
  0
VERTEX
  8
VISIBLE_NARROW__ISO_
  5
888
 10
26.2688
 20
13.4239
 30
0.000000
  70
    32
  0
VERTEX
  8
VISIBLE_NARROW__ISO_
  5
889
 10
26.2655
 20
13.4262
 30
0.000000
  70
    32
  0
VERTEX
  8
VISIBLE_NARROW__ISO_
  5
88A
 10
26.2621
 20
13.4286
 30
0.000000
  70
    32
  0
VERTEX
  8
VISIBLE_NARROW__ISO_
  5
88B
 10
26.2588
 20
13.4310
 30
0.000000
  70
    32
  0
VERTEX
  8
VISIBLE_NARROW__ISO_
  5
88C
 10
26.2554
 20
13.4333
 30
0.000000
  70
    32
  0
VERTEX
  8
VISIBLE_NARROW__ISO_
  5
88D
 10
26.2520
 20
13.4356
 30
0.000000
  70
    32
  0
VERTEX
  8
VISIBLE_NARROW__ISO_
  5
88E
 10
26.2487
 20
13.4380
 30
0.000000
  70
    32
  0
VERTEX
  8
VISIBLE_NARROW__ISO_
  5
88F
 10
26.2453
 20
13.4403
 30
0.000000
  70
    32
  0
VERTEX
  8
VISIBLE_NARROW__ISO_
  5
890
 10
26.2419
 20
13.4426
 30
0.000000
  70
    32
  0
VERTEX
  8
VISIBLE_NARROW__ISO_
  5
891
 10
26.2385
 20
13.4449
 30
0.000000
  70
    32
  0
VERTEX
  8
VISIBLE_NARROW__ISO_
  5
892
 10
26.2351
 20
13.4472
 30
0.000000
  70
    32
  0
VERTEX
  8
VISIBLE_NARROW__ISO_
  5
893
 10
26.2317
 20
13.4495
 30
0.000000
  70
    32
  0
VERTEX
  8
VISIBLE_NARROW__ISO_
  5
894
 10
26.2283
 20
13.4517
 30
0.000000
  70
    32
  0
VERTEX
  8
VISIBLE_NARROW__ISO_
  5
895
 10
26.2248
 20
13.4540
 30
0.000000
  70
    32
  0
VERTEX
  8
VISIBLE_NARROW__ISO_
  5
896
 10
26.2214
 20
13.4562
 30
0.000000
  70
    32
  0
VERTEX
  8
VISIBLE_NARROW__ISO_
  5
897
 10
26.2180
 20
13.4585
 30
0.000000
  70
    32
  0
VERTEX
  8
VISIBLE_NARROW__ISO_
  5
898
 10
26.2145
 20
13.4607
 30
0.000000
  70
    32
  0
VERTEX
  8
VISIBLE_NARROW__ISO_
  5
899
 10
26.2111
 20
13.4629
 30
0.000000
  70
    32
  0
VERTEX
  8
VISIBLE_NARROW__ISO_
  5
89A
 10
26.2076
 20
13.4651
 30
0.000000
  70
    32
  0
VERTEX
  8
VISIBLE_NARROW__ISO_
  5
89B
 10
26.2041
 20
13.4673
 30
0.000000
  70
    32
  0
VERTEX
  8
VISIBLE_NARROW__ISO_
  5
89C
 10
26.2007
 20
13.4695
 30
0.000000
  70
    32
  0
VERTEX
  8
VISIBLE_NARROW__ISO_
  5
89D
 10
26.1972
 20
13.4716
 30
0.000000
  70
    32
  0
VERTEX
  8
VISIBLE_NARROW__ISO_
  5
89E
 10
26.1937
 20
13.4738
 30
0.000000
  70
    32
  0
VERTEX
  8
VISIBLE_NARROW__ISO_
  5
89F
 10
26.1902
 20
13.4759
 30
0.000000
  70
    32
  0
VERTEX
  8
VISIBLE_NARROW__ISO_
  5
8A0
 10
26.1867
 20
13.4781
 30
0.000000
  70
    32
  0
VERTEX
  8
VISIBLE_NARROW__ISO_
  5
8A1
 10
26.1832
 20
13.4802
 30
0.000000
  70
    32
  0
VERTEX
  8
VISIBLE_NARROW__ISO_
  5
8A2
 10
26.1797
 20
13.4823
 30
0.000000
  70
    32
  0
VERTEX
  8
VISIBLE_NARROW__ISO_
  5
8A3
 10
26.1762
 20
13.4844
 30
0.000000
  70
    32
  0
VERTEX
  8
VISIBLE_NARROW__ISO_
  5
8A4
 10
26.1726
 20
13.4865
 30
0.000000
  70
    32
  0
VERTEX
  8
VISIBLE_NARROW__ISO_
  5
8A5
 10
26.1691
 20
13.4886
 30
0.000000
  70
    32
  0
VERTEX
  8
VISIBLE_NARROW__ISO_
  5
8A6
 10
26.1656
 20
13.4907
 30
0.000000
  70
    32
  0
VERTEX
  8
VISIBLE_NARROW__ISO_
  5
8A7
 10
26.1620
 20
13.4927
 30
0.000000
  70
    32
  0
VERTEX
  8
VISIBLE_NARROW__ISO_
  5
8A8
 10
26.1585
 20
13.4948
 30
0.000000
  70
    32
  0
VERTEX
  8
VISIBLE_NARROW__ISO_
  5
8A9
 10
26.1549
 20
13.4968
 30
0.000000
  70
    32
  0
VERTEX
  8
VISIBLE_NARROW__ISO_
  5
8AA
 10
26.1513
 20
13.4989
 30
0.000000
  70
    32
  0
VERTEX
  8
VISIBLE_NARROW__ISO_
  5
8AB
 10
26.1478
 20
13.5009
 30
0.000000
  70
    32
  0
VERTEX
  8
VISIBLE_NARROW__ISO_
  5
8AC
 10
26.1442
 20
13.5029
 30
0.000000
  70
    32
  0
VERTEX
  8
VISIBLE_NARROW__ISO_
  5
8AD
 10
26.1406
 20
13.5049
 30
0.000000
  70
    32
  0
VERTEX
  8
VISIBLE_NARROW__ISO_
  5
8AE
 10
26.1370
 20
13.5069
 30
0.000000
  70
    32
  0
VERTEX
  8
VISIBLE_NARROW__ISO_
  5
8AF
 10
26.1334
 20
13.5088
 30
0.000000
  70
    32
  0
VERTEX
  8
VISIBLE_NARROW__ISO_
  5
8B0
 10
26.1298
 20
13.5108
 30
0.000000
  70
    32
  0
VERTEX
  8
VISIBLE_NARROW__ISO_
  5
8B1
 10
26.1262
 20
13.5128
 30
0.000000
  70
    32
  0
VERTEX
  8
VISIBLE_NARROW__ISO_
  5
8B2
 10
26.1226
 20
13.5147
 30
0.000000
  70
    32
  0
VERTEX
  8
VISIBLE_NARROW__ISO_
  5
8B3
 10
26.1190
 20
13.5166
 30
0.000000
  70
    32
  0
VERTEX
  8
VISIBLE_NARROW__ISO_
  5
8B4
 10
26.1154
 20
13.5185
 30
0.000000
  70
    32
  0
VERTEX
  8
VISIBLE_NARROW__ISO_
  5
8B5
 10
26.1117
 20
13.5204
 30
0.000000
  70
    32
  0
VERTEX
  8
VISIBLE_NARROW__ISO_
  5
8B6
 10
26.1081
 20
13.5223
 30
0.000000
  70
    32
  0
VERTEX
  8
VISIBLE_NARROW__ISO_
  5
8B7
 10
26.1045
 20
13.5242
 30
0.000000
  70
    32
  0
VERTEX
  8
VISIBLE_NARROW__ISO_
  5
8B8
 10
26.1008
 20
13.5261
 30
0.000000
  70
    32
  0
VERTEX
  8
VISIBLE_NARROW__ISO_
  5
8B9
 10
26.0972
 20
13.5280
 30
0.000000
  70
    32
  0
VERTEX
  8
VISIBLE_NARROW__ISO_
  5
8BA
 10
26.0935
 20
13.5298
 30
0.000000
  70
    32
  0
VERTEX
  8
VISIBLE_NARROW__ISO_
  5
8BB
 10
26.0898
 20
13.5317
 30
0.000000
  70
    32
  0
VERTEX
  8
VISIBLE_NARROW__ISO_
  5
8BC
 10
26.0862
 20
13.5335
 30
0.000000
  70
    32
  0
VERTEX
  8
VISIBLE_NARROW__ISO_
  5
8BD
 10
26.0825
 20
13.5353
 30
0.000000
  70
    32
  0
VERTEX
  8
VISIBLE_NARROW__ISO_
  5
8BE
 10
26.0788
 20
13.5371
 30
0.000000
  70
    32
  0
VERTEX
  8
VISIBLE_NARROW__ISO_
  5
8BF
 10
26.0751
 20
13.5389
 30
0.000000
  70
    32
  0
VERTEX
  8
VISIBLE_NARROW__ISO_
  5
8C0
 10
26.0714
 20
13.5407
 30
0.000000
  70
    32
  0
VERTEX
  8
VISIBLE_NARROW__ISO_
  5
8C1
 10
26.0677
 20
13.5425
 30
0.000000
  70
    32
  0
VERTEX
  8
VISIBLE_NARROW__ISO_
  5
8C2
 10
26.0640
 20
13.5442
 30
0.000000
  70
    32
  0
VERTEX
  8
VISIBLE_NARROW__ISO_
  5
8C3
 10
26.0603
 20
13.5460
 30
0.000000
  70
    32
  0
VERTEX
  8
VISIBLE_NARROW__ISO_
  5
8C4
 10
26.0566
 20
13.5477
 30
0.000000
  70
    32
  0
VERTEX
  8
VISIBLE_NARROW__ISO_
  5
8C5
 10
26.0529
 20
13.5494
 30
0.000000
  70
    32
  0
VERTEX
  8
VISIBLE_NARROW__ISO_
  5
8C6
 10
26.0492
 20
13.5511
 30
0.000000
  70
    32
  0
VERTEX
  8
VISIBLE_NARROW__ISO_
  5
8C7
 10
26.0454
 20
13.5528
 30
0.000000
  70
    32
  0
VERTEX
  8
VISIBLE_NARROW__ISO_
  5
8C8
 10
26.0417
 20
13.5545
 30
0.000000
  70
    32
  0
VERTEX
  8
VISIBLE_NARROW__ISO_
  5
8C9
 10
26.0379
 20
13.5562
 30
0.000000
  70
    32
  0
VERTEX
  8
VISIBLE_NARROW__ISO_
  5
8CA
 10
26.0342
 20
13.5579
 30
0.000000
  70
    32
  0
VERTEX
  8
VISIBLE_NARROW__ISO_
  5
8CB
 10
26.0304
 20
13.5595
 30
0.000000
  70
    32
  0
VERTEX
  8
VISIBLE_NARROW__ISO_
  5
8CC
 10
26.0267
 20
13.5612
 30
0.000000
  70
    32
  0
VERTEX
  8
VISIBLE_NARROW__ISO_
  5
8CD
 10
26.0229
 20
13.5628
 30
0.000000
  70
    32
  0
VERTEX
  8
VISIBLE_NARROW__ISO_
  5
8CE
 10
26.0192
 20
13.5644
 30
0.000000
  70
    32
  0
VERTEX
  8
VISIBLE_NARROW__ISO_
  5
8CF
 10
26.0154
 20
13.5661
 30
0.000000
  70
    32
  0
VERTEX
  8
VISIBLE_NARROW__ISO_
  5
8D0
 10
26.0116
 20
13.5677
 30
0.000000
  70
    32
  0
VERTEX
  8
VISIBLE_NARROW__ISO_
  5
8D1
 10
26.0078
 20
13.5692
 30
0.000000
  70
    32
  0
VERTEX
  8
VISIBLE_NARROW__ISO_
  5
8D2
 10
26.0041
 20
13.5708
 30
0.000000
  70
    32
  0
VERTEX
  8
VISIBLE_NARROW__ISO_
  5
8D3
 10
26.0003
 20
13.5724
 30
0.000000
  70
    32
  0
VERTEX
  8
VISIBLE_NARROW__ISO_
  5
8D4
 10
25.9965
 20
13.5739
 30
0.000000
  70
    32
  0
VERTEX
  8
VISIBLE_NARROW__ISO_
  5
8D5
 10
25.9927
 20
13.5755
 30
0.000000
  70
    32
  0
VERTEX
  8
VISIBLE_NARROW__ISO_
  5
8D6
 10
25.9889
 20
13.5770
 30
0.000000
  70
    32
  0
VERTEX
  8
VISIBLE_NARROW__ISO_
  5
8D7
 10
25.9851
 20
13.5785
 30
0.000000
  70
    32
  0
VERTEX
  8
VISIBLE_NARROW__ISO_
  5
8D8
 10
25.9812
 20
13.5800
 30
0.000000
  70
    32
  0
VERTEX
  8
VISIBLE_NARROW__ISO_
  5
8D9
 10
25.9774
 20
13.5815
 30
0.000000
  70
    32
  0
VERTEX
  8
VISIBLE_NARROW__ISO_
  5
8DA
 10
25.9736
 20
13.5830
 30
0.000000
  70
    32
  0
VERTEX
  8
VISIBLE_NARROW__ISO_
  5
8DB
 10
25.9698
 20
13.5845
 30
0.000000
  70
    32
  0
VERTEX
  8
VISIBLE_NARROW__ISO_
  5
8DC
 10
25.9659
 20
13.5859
 30
0.000000
  70
    32
  0
VERTEX
  8
VISIBLE_NARROW__ISO_
  5
8DD
 10
25.9621
 20
13.5874
 30
0.000000
  70
    32
  0
VERTEX
  8
VISIBLE_NARROW__ISO_
  5
8DE
 10
25.9583
 20
13.5888
 30
0.000000
  70
    32
  0
VERTEX
  8
VISIBLE_NARROW__ISO_
  5
8DF
 10
25.9544
 20
13.5903
 30
0.000000
  70
    32
  0
VERTEX
  8
VISIBLE_NARROW__ISO_
  5
8E0
 10
25.9506
 20
13.5917
 30
0.000000
  70
    32
  0
VERTEX
  8
VISIBLE_NARROW__ISO_
  5
8E1
 10
25.9467
 20
13.5931
 30
0.000000
  70
    32
  0
VERTEX
  8
VISIBLE_NARROW__ISO_
  5
8E2
 10
25.9429
 20
13.5945
 30
0.000000
  70
    32
  0
VERTEX
  8
VISIBLE_NARROW__ISO_
  5
8E3
 10
25.9390
 20
13.5958
 30
0.000000
  70
    32
  0
VERTEX
  8
VISIBLE_NARROW__ISO_
  5
8E4
 10
25.9351
 20
13.5972
 30
0.000000
  70
    32
  0
VERTEX
  8
VISIBLE_NARROW__ISO_
  5
8E5
 10
25.9313
 20
13.5986
 30
0.000000
  70
    32
  0
VERTEX
  8
VISIBLE_NARROW__ISO_
  5
8E6
 10
25.9274
 20
13.5999
 30
0.000000
  70
    32
  0
VERTEX
  8
VISIBLE_NARROW__ISO_
  5
8E7
 10
25.9235
 20
13.6012
 30
0.000000
  70
    32
  0
VERTEX
  8
VISIBLE_NARROW__ISO_
  5
8E8
 10
25.9196
 20
13.6025
 30
0.000000
  70
    32
  0
VERTEX
  8
VISIBLE_NARROW__ISO_
  5
8E9
 10
25.9157
 20
13.6038
 30
0.000000
  70
    32
  0
VERTEX
  8
VISIBLE_NARROW__ISO_
  5
8EA
 10
25.9118
 20
13.6051
 30
0.000000
  70
    32
  0
VERTEX
  8
VISIBLE_NARROW__ISO_
  5
8EB
 10
25.9079
 20
13.6064
 30
0.000000
  70
    32
  0
VERTEX
  8
VISIBLE_NARROW__ISO_
  5
8EC
 10
25.9040
 20
13.6077
 30
0.000000
  70
    32
  0
VERTEX
  8
VISIBLE_NARROW__ISO_
  5
8ED
 10
25.9001
 20
13.6089
 30
0.000000
  70
    32
  0
VERTEX
  8
VISIBLE_NARROW__ISO_
  5
8EE
 10
25.8962
 20
13.6102
 30
0.000000
  70
    32
  0
VERTEX
  8
VISIBLE_NARROW__ISO_
  5
8EF
 10
25.8923
 20
13.6114
 30
0.000000
  70
    32
  0
VERTEX
  8
VISIBLE_NARROW__ISO_
  5
8F0
 10
25.8884
 20
13.6126
 30
0.000000
  70
    32
  0
VERTEX
  8
VISIBLE_NARROW__ISO_
  5
8F1
 10
25.8845
 20
13.6138
 30
0.000000
  70
    32
  0
VERTEX
  8
VISIBLE_NARROW__ISO_
  5
8F2
 10
25.8806
 20
13.6150
 30
0.000000
  70
    32
  0
VERTEX
  8
VISIBLE_NARROW__ISO_
  5
8F3
 10
25.8766
 20
13.6162
 30
0.000000
  70
    32
  0
VERTEX
  8
VISIBLE_NARROW__ISO_
  5
8F4
 10
25.8727
 20
13.6174
 30
0.000000
  70
    32
  0
VERTEX
  8
VISIBLE_NARROW__ISO_
  5
8F5
 10
25.8688
 20
13.6186
 30
0.000000
  70
    32
  0
VERTEX
  8
VISIBLE_NARROW__ISO_
  5
8F6
 10
25.8648
 20
13.6197
 30
0.000000
  70
    32
  0
VERTEX
  8
VISIBLE_NARROW__ISO_
  5
8F7
 10
25.8609
 20
13.6208
 30
0.000000
  70
    32
  0
VERTEX
  8
VISIBLE_NARROW__ISO_
  5
8F8
 10
25.8570
 20
13.6220
 30
0.000000
  70
    32
  0
VERTEX
  8
VISIBLE_NARROW__ISO_
  5
8F9
 10
25.8530
 20
13.6231
 30
0.000000
  70
    32
  0
VERTEX
  8
VISIBLE_NARROW__ISO_
  5
8FA
 10
25.8491
 20
13.6242
 30
0.000000
  70
    32
  0
VERTEX
  8
VISIBLE_NARROW__ISO_
  5
8FB
 10
25.8451
 20
13.6253
 30
0.000000
  70
    32
  0
VERTEX
  8
VISIBLE_NARROW__ISO_
  5
8FC
 10
25.8412
 20
13.6263
 30
0.000000
  70
    32
  0
VERTEX
  8
VISIBLE_NARROW__ISO_
  5
8FD
 10
25.8372
 20
13.6274
 30
0.000000
  70
    32
  0
VERTEX
  8
VISIBLE_NARROW__ISO_
  5
8FE
 10
25.8332
 20
13.6284
 30
0.000000
  70
    32
  0
VERTEX
  8
VISIBLE_NARROW__ISO_
  5
8FF
 10
25.8293
 20
13.6295
 30
0.000000
  70
    32
  0
VERTEX
  8
VISIBLE_NARROW__ISO_
  5
900
 10
25.8253
 20
13.6305
 30
0.000000
  70
    32
  0
VERTEX
  8
VISIBLE_NARROW__ISO_
  5
901
 10
25.8213
 20
13.6315
 30
0.000000
  70
    32
  0
VERTEX
  8
VISIBLE_NARROW__ISO_
  5
902
 10
25.8173
 20
13.6325
 30
0.000000
  70
    32
  0
VERTEX
  8
VISIBLE_NARROW__ISO_
  5
903
 10
25.8134
 20
13.6335
 30
0.000000
  70
    32
  0
VERTEX
  8
VISIBLE_NARROW__ISO_
  5
904
 10
25.8094
 20
13.6345
 30
0.000000
  70
    32
  0
VERTEX
  8
VISIBLE_NARROW__ISO_
  5
905
 10
25.8054
 20
13.6355
 30
0.000000
  70
    32
  0
VERTEX
  8
VISIBLE_NARROW__ISO_
  5
906
 10
25.8014
 20
13.6364
 30
0.000000
  70
    32
  0
VERTEX
  8
VISIBLE_NARROW__ISO_
  5
907
 10
25.7974
 20
13.6374
 30
0.000000
  70
    32
  0
VERTEX
  8
VISIBLE_NARROW__ISO_
  5
908
 10
25.7934
 20
13.6383
 30
0.000000
  70
    32
  0
VERTEX
  8
VISIBLE_NARROW__ISO_
  5
909
 10
25.7894
 20
13.6392
 30
0.000000
  70
    32
  0
VERTEX
  8
VISIBLE_NARROW__ISO_
  5
90A
 10
25.7854
 20
13.6401
 30
0.000000
  70
    32
  0
VERTEX
  8
VISIBLE_NARROW__ISO_
  5
90B
 10
25.7814
 20
13.6410
 30
0.000000
  70
    32
  0
VERTEX
  8
VISIBLE_NARROW__ISO_
  5
90C
 10
25.7774
 20
13.6419
 30
0.000000
  70
    32
  0
VERTEX
  8
VISIBLE_NARROW__ISO_
  5
90D
 10
25.7734
 20
13.6427
 30
0.000000
  70
    32
  0
VERTEX
  8
VISIBLE_NARROW__ISO_
  5
90E
 10
25.7694
 20
13.6436
 30
0.000000
  70
    32
  0
VERTEX
  8
VISIBLE_NARROW__ISO_
  5
90F
 10
25.7654
 20
13.6444
 30
0.000000
  70
    32
  0
VERTEX
  8
VISIBLE_NARROW__ISO_
  5
910
 10
25.7614
 20
13.6453
 30
0.000000
  70
    32
  0
VERTEX
  8
VISIBLE_NARROW__ISO_
  5
911
 10
25.7574
 20
13.6461
 30
0.000000
  70
    32
  0
VERTEX
  8
VISIBLE_NARROW__ISO_
  5
912
 10
25.7533
 20
13.6469
 30
0.000000
  70
    32
  0
VERTEX
  8
VISIBLE_NARROW__ISO_
  5
913
 10
25.7493
 20
13.6477
 30
0.000000
  70
    32
  0
VERTEX
  8
VISIBLE_NARROW__ISO_
  5
914
 10
25.7453
 20
13.6485
 30
0.000000
  70
    32
  0
VERTEX
  8
VISIBLE_NARROW__ISO_
  5
915
 10
25.7413
 20
13.6492
 30
0.000000
  70
    32
  0
VERTEX
  8
VISIBLE_NARROW__ISO_
  5
916
 10
25.7372
 20
13.6500
 30
0.000000
  70
    32
  0
VERTEX
  8
VISIBLE_NARROW__ISO_
  5
917
 10
25.7332
 20
13.6507
 30
0.000000
  70
    32
  0
VERTEX
  8
VISIBLE_NARROW__ISO_
  5
918
 10
25.7292
 20
13.6515
 30
0.000000
  70
    32
  0
VERTEX
  8
VISIBLE_NARROW__ISO_
  5
919
 10
25.7251
 20
13.6522
 30
0.000000
  70
    32
  0
VERTEX
  8
VISIBLE_NARROW__ISO_
  5
91A
 10
25.7211
 20
13.6529
 30
0.000000
  70
    32
  0
VERTEX
  8
VISIBLE_NARROW__ISO_
  5
91B
 10
25.7171
 20
13.6536
 30
0.000000
  70
    32
  0
VERTEX
  8
VISIBLE_NARROW__ISO_
  5
91C
 10
25.7130
 20
13.6543
 30
0.000000
  70
    32
  0
VERTEX
  8
VISIBLE_NARROW__ISO_
  5
91D
 10
25.7090
 20
13.6549
 30
0.000000
  70
    32
  0
VERTEX
  8
VISIBLE_NARROW__ISO_
  5
91E
 10
25.7049
 20
13.6556
 30
0.000000
  70
    32
  0
VERTEX
  8
VISIBLE_NARROW__ISO_
  5
91F
 10
25.7009
 20
13.6562
 30
0.000000
  70
    32
  0
VERTEX
  8
VISIBLE_NARROW__ISO_
  5
920
 10
25.6968
 20
13.6569
 30
0.000000
  70
    32
  0
VERTEX
  8
VISIBLE_NARROW__ISO_
  5
921
 10
25.6928
 20
13.6575
 30
0.000000
  70
    32
  0
VERTEX
  8
VISIBLE_NARROW__ISO_
  5
922
 10
25.6887
 20
13.6581
 30
0.000000
  70
    32
  0
VERTEX
  8
VISIBLE_NARROW__ISO_
  5
923
 10
25.6847
 20
13.6587
 30
0.000000
  70
    32
  0
VERTEX
  8
VISIBLE_NARROW__ISO_
  5
924
 10
25.6806
 20
13.6593
 30
0.000000
  70
    32
  0
VERTEX
  8
VISIBLE_NARROW__ISO_
  5
925
 10
25.6765
 20
13.6598
 30
0.000000
  70
    32
  0
VERTEX
  8
VISIBLE_NARROW__ISO_
  5
926
 10
25.6725
 20
13.6604
 30
0.000000
  70
    32
  0
VERTEX
  8
VISIBLE_NARROW__ISO_
  5
927
 10
25.6684
 20
13.6609
 30
0.000000
  70
    32
  0
VERTEX
  8
VISIBLE_NARROW__ISO_
  5
928
 10
25.6643
 20
13.6615
 30
0.000000
  70
    32
  0
VERTEX
  8
VISIBLE_NARROW__ISO_
  5
929
 10
25.6603
 20
13.6620
 30
0.000000
  70
    32
  0
VERTEX
  8
VISIBLE_NARROW__ISO_
  5
92A
 10
25.6562
 20
13.6625
 30
0.000000
  70
    32
  0
VERTEX
  8
VISIBLE_NARROW__ISO_
  5
92B
 10
25.6521
 20
13.6630
 30
0.000000
  70
    32
  0
VERTEX
  8
VISIBLE_NARROW__ISO_
  5
92C
 10
25.6481
 20
13.6635
 30
0.000000
  70
    32
  0
VERTEX
  8
VISIBLE_NARROW__ISO_
  5
92D
 10
25.6440
 20
13.6640
 30
0.000000
  70
    32
  0
VERTEX
  8
VISIBLE_NARROW__ISO_
  5
92E
 10
25.6399
 20
13.6644
 30
0.000000
  70
    32
  0
VERTEX
  8
VISIBLE_NARROW__ISO_
  5
92F
 10
25.6358
 20
13.6649
 30
0.000000
  70
    32
  0
VERTEX
  8
VISIBLE_NARROW__ISO_
  5
930
 10
25.6318
 20
13.6653
 30
0.000000
  70
    32
  0
VERTEX
  8
VISIBLE_NARROW__ISO_
  5
931
 10
25.6277
 20
13.6657
 30
0.000000
  70
    32
  0
VERTEX
  8
VISIBLE_NARROW__ISO_
  5
932
 10
25.6236
 20
13.6661
 30
0.000000
  70
    32
  0
VERTEX
  8
VISIBLE_NARROW__ISO_
  5
933
 10
25.6195
 20
13.6665
 30
0.000000
  70
    32
  0
VERTEX
  8
VISIBLE_NARROW__ISO_
  5
934
 10
25.6154
 20
13.6669
 30
0.000000
  70
    32
  0
VERTEX
  8
VISIBLE_NARROW__ISO_
  5
935
 10
25.6114
 20
13.6673
 30
0.000000
  70
    32
  0
VERTEX
  8
VISIBLE_NARROW__ISO_
  5
936
 10
25.6073
 20
13.6676
 30
0.000000
  70
    32
  0
VERTEX
  8
VISIBLE_NARROW__ISO_
  5
937
 10
25.6032
 20
13.6680
 30
0.000000
  70
    32
  0
VERTEX
  8
VISIBLE_NARROW__ISO_
  5
938
 10
25.5991
 20
13.6683
 30
0.000000
  70
    32
  0
VERTEX
  8
VISIBLE_NARROW__ISO_
  5
939
 10
25.5950
 20
13.6686
 30
0.000000
  70
    32
  0
VERTEX
  8
VISIBLE_NARROW__ISO_
  5
93A
 10
25.5909
 20
13.6689
 30
0.000000
  70
    32
  0
VERTEX
  8
VISIBLE_NARROW__ISO_
  5
93B
 10
25.5868
 20
13.6692
 30
0.000000
  70
    32
  0
VERTEX
  8
VISIBLE_NARROW__ISO_
  5
93C
 10
25.5828
 20
13.6695
 30
0.000000
  70
    32
  0
VERTEX
  8
VISIBLE_NARROW__ISO_
  5
93D
 10
25.5787
 20
13.6698
 30
0.000000
  70
    32
  0
VERTEX
  8
VISIBLE_NARROW__ISO_
  5
93E
 10
25.5746
 20
13.6700
 30
0.000000
  70
    32
  0
VERTEX
  8
VISIBLE_NARROW__ISO_
  5
93F
 10
25.5705
 20
13.6703
 30
0.000000
  70
    32
  0
VERTEX
  8
VISIBLE_NARROW__ISO_
  5
940
 10
25.5664
 20
13.6705
 30
0.000000
  70
    32
  0
VERTEX
  8
VISIBLE_NARROW__ISO_
  5
941
 10
25.5623
 20
13.6707
 30
0.000000
  70
    32
  0
VERTEX
  8
VISIBLE_NARROW__ISO_
  5
942
 10
25.5582
 20
13.6709
 30
0.000000
  70
    32
  0
VERTEX
  8
VISIBLE_NARROW__ISO_
  5
943
 10
25.5541
 20
13.6711
 30
0.000000
  70
    32
  0
VERTEX
  8
VISIBLE_NARROW__ISO_
  5
944
 10
25.5500
 20
13.6713
 30
0.000000
  70
    32
  0
VERTEX
  8
VISIBLE_NARROW__ISO_
  5
945
 10
25.5459
 20
13.6715
 30
0.000000
  70
    32
  0
VERTEX
  8
VISIBLE_NARROW__ISO_
  5
946
 10
25.5418
 20
13.6716
 30
0.000000
  70
    32
  0
VERTEX
  8
VISIBLE_NARROW__ISO_
  5
947
 10
25.5377
 20
13.6718
 30
0.000000
  70
    32
  0
VERTEX
  8
VISIBLE_NARROW__ISO_
  5
948
 10
25.5336
 20
13.6719
 30
0.000000
  70
    32
  0
VERTEX
  8
VISIBLE_NARROW__ISO_
  5
949
 10
25.5295
 20
13.6720
 30
0.000000
  70
    32
  0
VERTEX
  8
VISIBLE_NARROW__ISO_
  5
94A
 10
25.5254
 20
13.6721
 30
0.000000
  70
    32
  0
VERTEX
  8
VISIBLE_NARROW__ISO_
  5
94B
 10
25.5213
 20
13.6722
 30
0.000000
  70
    32
  0
VERTEX
  8
VISIBLE_NARROW__ISO_
  5
94C
 10
25.5172
 20
13.6723
 30
0.000000
  70
    32
  0
VERTEX
  8
VISIBLE_NARROW__ISO_
  5
94D
 10
25.5131
 20
13.6724
 30
0.000000
  70
    32
  0
VERTEX
  8
VISIBLE_NARROW__ISO_
  5
94E
 10
25.5090
 20
13.6724
 30
0.000000
  70
    32
  0
VERTEX
  8
VISIBLE_NARROW__ISO_
  5
94F
 10
25.5049
 20
13.6725
 30
0.000000
  70
    32
  0
VERTEX
  8
VISIBLE_NARROW__ISO_
  5
950
 10
25.5008
 20
13.6725
 30
0.000000
  70
    32
  0
VERTEX
  8
VISIBLE_NARROW__ISO_
  5
951
 10
25.4967
 20
13.6725
 30
0.000000
  70
    32
  0
VERTEX
  8
VISIBLE_NARROW__ISO_
  5
952
 10
25.4926
 20
13.6725
 30
0.000000
  70
    32
  0
SEQEND
  8
VISIBLE_NARROW__ISO_
  5
953
  0
POLYLINE
  67
1
  8
VISIBLE_NARROW__ISO_
  5
954
  66
     1
 10
0.000000
 20
0.000000
 30
0.000000
  70
     8
  0
VERTEX
  8
VISIBLE_NARROW__ISO_
  5
955
 10
-1.86280
 20
13.6725
 30
0.000000
  70
    32
  0
VERTEX
  8
VISIBLE_NARROW__ISO_
  5
956
 10
-1.86690
 20
13.6725
 30
0.000000
  70
    32
  0
VERTEX
  8
VISIBLE_NARROW__ISO_
  5
957
 10
-1.87100
 20
13.6725
 30
0.000000
  70
    32
  0
VERTEX
  8
VISIBLE_NARROW__ISO_
  5
958
 10
-1.87510
 20
13.6725
 30
0.000000
  70
    32
  0
VERTEX
  8
VISIBLE_NARROW__ISO_
  5
959
 10
-1.87920
 20
13.6724
 30
0.000000
  70
    32
  0
VERTEX
  8
VISIBLE_NARROW__ISO_
  5
95A
 10
-1.88330
 20
13.6724
 30
0.000000
  70
    32
  0
VERTEX
  8
VISIBLE_NARROW__ISO_
  5
95B
 10
-1.88740
 20
13.6723
 30
0.000000
  70
    32
  0
VERTEX
  8
VISIBLE_NARROW__ISO_
  5
95C
 10
-1.89150
 20
13.6722
 30
0.000000
  70
    32
  0
VERTEX
  8
VISIBLE_NARROW__ISO_
  5
95D
 10
-1.89559
 20
13.6721
 30
0.000000
  70
    32
  0
VERTEX
  8
VISIBLE_NARROW__ISO_
  5
95E
 10
-1.89969
 20
13.6720
 30
0.000000
  70
    32
  0
VERTEX
  8
VISIBLE_NARROW__ISO_
  5
95F
 10
-1.90379
 20
13.6719
 30
0.000000
  70
    32
  0
VERTEX
  8
VISIBLE_NARROW__ISO_
  5
960
 10
-1.90789
 20
13.6718
 30
0.000000
  70
    32
  0
VERTEX
  8
VISIBLE_NARROW__ISO_
  5
961
 10
-1.91199
 20
13.6716
 30
0.000000
  70
    32
  0
VERTEX
  8
VISIBLE_NARROW__ISO_
  5
962
 10
-1.91608
 20
13.6715
 30
0.000000
  70
    32
  0
VERTEX
  8
VISIBLE_NARROW__ISO_
  5
963
 10
-1.92018
 20
13.6713
 30
0.000000
  70
    32
  0
VERTEX
  8
VISIBLE_NARROW__ISO_
  5
964
 10
-1.92427
 20
13.6711
 30
0.000000
  70
    32
  0
VERTEX
  8
VISIBLE_NARROW__ISO_
  5
965
 10
-1.92837
 20
13.6709
 30
0.000000
  70
    32
  0
VERTEX
  8
VISIBLE_NARROW__ISO_
  5
966
 10
-1.93246
 20
13.6707
 30
0.000000
  70
    32
  0
VERTEX
  8
VISIBLE_NARROW__ISO_
  5
967
 10
-1.93656
 20
13.6705
 30
0.000000
  70
    32
  0
VERTEX
  8
VISIBLE_NARROW__ISO_
  5
968
 10
-1.94065
 20
13.6703
 30
0.000000
  70
    32
  0
VERTEX
  8
VISIBLE_NARROW__ISO_
  5
969
 10
-1.94474
 20
13.6700
 30
0.000000
  70
    32
  0
VERTEX
  8
VISIBLE_NARROW__ISO_
  5
96A
 10
-1.94883
 20
13.6698
 30
0.000000
  70
    32
  0
VERTEX
  8
VISIBLE_NARROW__ISO_
  5
96B
 10
-1.95293
 20
13.6695
 30
0.000000
  70
    32
  0
VERTEX
  8
VISIBLE_NARROW__ISO_
  5
96C
 10
-1.95702
 20
13.6692
 30
0.000000
  70
    32
  0
VERTEX
  8
VISIBLE_NARROW__ISO_
  5
96D
 10
-1.96110
 20
13.6689
 30
0.000000
  70
    32
  0
VERTEX
  8
VISIBLE_NARROW__ISO_
  5
96E
 10
-1.96519
 20
13.6686
 30
0.000000
  70
    32
  0
VERTEX
  8
VISIBLE_NARROW__ISO_
  5
96F
 10
-1.96928
 20
13.6683
 30
0.000000
  70
    32
  0
VERTEX
  8
VISIBLE_NARROW__ISO_
  5
970
 10
-1.97337
 20
13.6680
 30
0.000000
  70
    32
  0
VERTEX
  8
VISIBLE_NARROW__ISO_
  5
971
 10
-1.97745
 20
13.6676
 30
0.000000
  70
    32
  0
VERTEX
  8
VISIBLE_NARROW__ISO_
  5
972
 10
-1.98154
 20
13.6673
 30
0.000000
  70
    32
  0
VERTEX
  8
VISIBLE_NARROW__ISO_
  5
973
 10
-1.98562
 20
13.6669
 30
0.000000
  70
    32
  0
VERTEX
  8
VISIBLE_NARROW__ISO_
  5
974
 10
-1.98970
 20
13.6665
 30
0.000000
  70
    32
  0
VERTEX
  8
VISIBLE_NARROW__ISO_
  5
975
 10
-1.99378
 20
13.6661
 30
0.000000
  70
    32
  0
VERTEX
  8
VISIBLE_NARROW__ISO_
  5
976
 10
-1.99786
 20
13.6657
 30
0.000000
  70
    32
  0
VERTEX
  8
VISIBLE_NARROW__ISO_
  5
977
 10
-2.00194
 20
13.6653
 30
0.000000
  70
    32
  0
VERTEX
  8
VISIBLE_NARROW__ISO_
  5
978
 10
-2.00602
 20
13.6649
 30
0.000000
  70
    32
  0
VERTEX
  8
VISIBLE_NARROW__ISO_
  5
979
 10
-2.01009
 20
13.6644
 30
0.000000
  70
    32
  0
VERTEX
  8
VISIBLE_NARROW__ISO_
  5
97A
 10
-2.01417
 20
13.6640
 30
0.000000
  70
    32
  0
VERTEX
  8
VISIBLE_NARROW__ISO_
  5
97B
 10
-2.01824
 20
13.6635
 30
0.000000
  70
    32
  0
VERTEX
  8
VISIBLE_NARROW__ISO_
  5
97C
 10
-2.02231
 20
13.6630
 30
0.000000
  70
    32
  0
VERTEX
  8
VISIBLE_NARROW__ISO_
  5
97D
 10
-2.02638
 20
13.6625
 30
0.000000
  70
    32
  0
VERTEX
  8
VISIBLE_NARROW__ISO_
  5
97E
 10
-2.03045
 20
13.6620
 30
0.000000
  70
    32
  0
VERTEX
  8
VISIBLE_NARROW__ISO_
  5
97F
 10
-2.03452
 20
13.6615
 30
0.000000
  70
    32
  0
VERTEX
  8
VISIBLE_NARROW__ISO_
  5
980
 10
-2.03858
 20
13.6610
 30
0.000000
  70
    32
  0
VERTEX
  8
VISIBLE_NARROW__ISO_
  5
981
 10
-2.04265
 20
13.6604
 30
0.000000
  70
    32
  0
VERTEX
  8
VISIBLE_NARROW__ISO_
  5
982
 10
-2.04671
 20
13.6599
 30
0.000000
  70
    32
  0
VERTEX
  8
VISIBLE_NARROW__ISO_
  5
983
 10
-2.05077
 20
13.6593
 30
0.000000
  70
    32
  0
VERTEX
  8
VISIBLE_NARROW__ISO_
  5
984
 10
-2.05483
 20
13.6587
 30
0.000000
  70
    32
  0
VERTEX
  8
VISIBLE_NARROW__ISO_
  5
985
 10
-2.05888
 20
13.6581
 30
0.000000
  70
    32
  0
VERTEX
  8
VISIBLE_NARROW__ISO_
  5
986
 10
-2.06294
 20
13.6575
 30
0.000000
  70
    32
  0
VERTEX
  8
VISIBLE_NARROW__ISO_
  5
987
 10
-2.06699
 20
13.6569
 30
0.000000
  70
    32
  0
VERTEX
  8
VISIBLE_NARROW__ISO_
  5
988
 10
-2.07104
 20
13.6563
 30
0.000000
  70
    32
  0
VERTEX
  8
VISIBLE_NARROW__ISO_
  5
989
 10
-2.07509
 20
13.6556
 30
0.000000
  70
    32
  0
VERTEX
  8
VISIBLE_NARROW__ISO_
  5
98A
 10
-2.07914
 20
13.6549
 30
0.000000
  70
    32
  0
VERTEX
  8
VISIBLE_NARROW__ISO_
  5
98B
 10
-2.08318
 20
13.6543
 30
0.000000
  70
    32
  0
VERTEX
  8
VISIBLE_NARROW__ISO_
  5
98C
 10
-2.08723
 20
13.6536
 30
0.000000
  70
    32
  0
VERTEX
  8
VISIBLE_NARROW__ISO_
  5
98D
 10
-2.09127
 20
13.6529
 30
0.000000
  70
    32
  0
VERTEX
  8
VISIBLE_NARROW__ISO_
  5
98E
 10
-2.09531
 20
13.6522
 30
0.000000
  70
    32
  0
VERTEX
  8
VISIBLE_NARROW__ISO_
  5
98F
 10
-2.09934
 20
13.6515
 30
0.000000
  70
    32
  0
VERTEX
  8
VISIBLE_NARROW__ISO_
  5
990
 10
-2.10338
 20
13.6507
 30
0.000000
  70
    32
  0
VERTEX
  8
VISIBLE_NARROW__ISO_
  5
991
 10
-2.10741
 20
13.6500
 30
0.000000
  70
    32
  0
VERTEX
  8
VISIBLE_NARROW__ISO_
  5
992
 10
-2.11144
 20
13.6492
 30
0.000000
  70
    32
  0
VERTEX
  8
VISIBLE_NARROW__ISO_
  5
993
 10
-2.11547
 20
13.6485
 30
0.000000
  70
    32
  0
VERTEX
  8
VISIBLE_NARROW__ISO_
  5
994
 10
-2.11949
 20
13.6477
 30
0.000000
  70
    32
  0
VERTEX
  8
VISIBLE_NARROW__ISO_
  5
995
 10
-2.12351
 20
13.6469
 30
0.000000
  70
    32
  0
VERTEX
  8
VISIBLE_NARROW__ISO_
  5
996
 10
-2.12753
 20
13.6461
 30
0.000000
  70
    32
  0
VERTEX
  8
VISIBLE_NARROW__ISO_
  5
997
 10
-2.13155
 20
13.6453
 30
0.000000
  70
    32
  0
VERTEX
  8
VISIBLE_NARROW__ISO_
  5
998
 10
-2.13557
 20
13.6444
 30
0.000000
  70
    32
  0
VERTEX
  8
VISIBLE_NARROW__ISO_
  5
999
 10
-2.13958
 20
13.6436
 30
0.000000
  70
    32
  0
VERTEX
  8
VISIBLE_NARROW__ISO_
  5
99A
 10
-2.14359
 20
13.6427
 30
0.000000
  70
    32
  0
VERTEX
  8
VISIBLE_NARROW__ISO_
  5
99B
 10
-2.14759
 20
13.6419
 30
0.000000
  70
    32
  0
VERTEX
  8
VISIBLE_NARROW__ISO_
  5
99C
 10
-2.15160
 20
13.6410
 30
0.000000
  70
    32
  0
VERTEX
  8
VISIBLE_NARROW__ISO_
  5
99D
 10
-2.15560
 20
13.6401
 30
0.000000
  70
    32
  0
VERTEX
  8
VISIBLE_NARROW__ISO_
  5
99E
 10
-2.15960
 20
13.6392
 30
0.000000
  70
    32
  0
VERTEX
  8
VISIBLE_NARROW__ISO_
  5
99F
 10
-2.16360
 20
13.6383
 30
0.000000
  70
    32
  0
VERTEX
  8
VISIBLE_NARROW__ISO_
  5
9A0
 10
-2.16759
 20
13.6374
 30
0.000000
  70
    32
  0
VERTEX
  8
VISIBLE_NARROW__ISO_
  5
9A1
 10
-2.17158
 20
13.6364
 30
0.000000
  70
    32
  0
VERTEX
  8
VISIBLE_NARROW__ISO_
  5
9A2
 10
-2.17557
 20
13.6355
 30
0.000000
  70
    32
  0
VERTEX
  8
VISIBLE_NARROW__ISO_
  5
9A3
 10
-2.17955
 20
13.6345
 30
0.000000
  70
    32
  0
VERTEX
  8
VISIBLE_NARROW__ISO_
  5
9A4
 10
-2.18354
 20
13.6335
 30
0.000000
  70
    32
  0
VERTEX
  8
VISIBLE_NARROW__ISO_
  5
9A5
 10
-2.18751
 20
13.6325
 30
0.000000
  70
    32
  0
VERTEX
  8
VISIBLE_NARROW__ISO_
  5
9A6
 10
-2.19149
 20
13.6315
 30
0.000000
  70
    32
  0
VERTEX
  8
VISIBLE_NARROW__ISO_
  5
9A7
 10
-2.19546
 20
13.6305
 30
0.000000
  70
    32
  0
VERTEX
  8
VISIBLE_NARROW__ISO_
  5
9A8
 10
-2.19943
 20
13.6295
 30
0.000000
  70
    32
  0
VERTEX
  8
VISIBLE_NARROW__ISO_
  5
9A9
 10
-2.20340
 20
13.6284
 30
0.000000
  70
    32
  0
VERTEX
  8
VISIBLE_NARROW__ISO_
  5
9AA
 10
-2.20736
 20
13.6274
 30
0.000000
  70
    32
  0
VERTEX
  8
VISIBLE_NARROW__ISO_
  5
9AB
 10
-2.21132
 20
13.6263
 30
0.000000
  70
    32
  0
VERTEX
  8
VISIBLE_NARROW__ISO_
  5
9AC
 10
-2.21528
 20
13.6253
 30
0.000000
  70
    32
  0
VERTEX
  8
VISIBLE_NARROW__ISO_
  5
9AD
 10
-2.21923
 20
13.6242
 30
0.000000
  70
    32
  0
VERTEX
  8
VISIBLE_NARROW__ISO_
  5
9AE
 10
-2.22318
 20
13.6231
 30
0.000000
  70
    32
  0
VERTEX
  8
VISIBLE_NARROW__ISO_
  5
9AF
 10
-2.22713
 20
13.6220
 30
0.000000
  70
    32
  0
VERTEX
  8
VISIBLE_NARROW__ISO_
  5
9B0
 10
-2.23107
 20
13.6208
 30
0.000000
  70
    32
  0
VERTEX
  8
VISIBLE_NARROW__ISO_
  5
9B1
 10
-2.23501
 20
13.6197
 30
0.000000
  70
    32
  0
VERTEX
  8
VISIBLE_NARROW__ISO_
  5
9B2
 10
-2.23895
 20
13.6185
 30
0.000000
  70
    32
  0
VERTEX
  8
VISIBLE_NARROW__ISO_
  5
9B3
 10
-2.24288
 20
13.6174
 30
0.000000
  70
    32
  0
VERTEX
  8
VISIBLE_NARROW__ISO_
  5
9B4
 10
-2.24681
 20
13.6162
 30
0.000000
  70
    32
  0
VERTEX
  8
VISIBLE_NARROW__ISO_
  5
9B5
 10
-2.25074
 20
13.6150
 30
0.000000
  70
    32
  0
VERTEX
  8
VISIBLE_NARROW__ISO_
  5
9B6
 10
-2.25466
 20
13.6138
 30
0.000000
  70
    32
  0
VERTEX
  8
VISIBLE_NARROW__ISO_
  5
9B7
 10
-2.25858
 20
13.6126
 30
0.000000
  70
    32
  0
VERTEX
  8
VISIBLE_NARROW__ISO_
  5
9B8
 10
-2.26249
 20
13.6114
 30
0.000000
  70
    32
  0
VERTEX
  8
VISIBLE_NARROW__ISO_
  5
9B9
 10
-2.26640
 20
13.6102
 30
0.000000
  70
    32
  0
VERTEX
  8
VISIBLE_NARROW__ISO_
  5
9BA
 10
-2.27031
 20
13.6089
 30
0.000000
  70
    32
  0
VERTEX
  8
VISIBLE_NARROW__ISO_
  5
9BB
 10
-2.27421
 20
13.6077
 30
0.000000
  70
    32
  0
VERTEX
  8
VISIBLE_NARROW__ISO_
  5
9BC
 10
-2.27811
 20
13.6064
 30
0.000000
  70
    32
  0
VERTEX
  8
VISIBLE_NARROW__ISO_
  5
9BD
 10
-2.28201
 20
13.6051
 30
0.000000
  70
    32
  0
VERTEX
  8
VISIBLE_NARROW__ISO_
  5
9BE
 10
-2.28590
 20
13.6038
 30
0.000000
  70
    32
  0
VERTEX
  8
VISIBLE_NARROW__ISO_
  5
9BF
 10
-2.28978
 20
13.6025
 30
0.000000
  70
    32
  0
VERTEX
  8
VISIBLE_NARROW__ISO_
  5
9C0
 10
-2.29367
 20
13.6012
 30
0.000000
  70
    32
  0
VERTEX
  8
VISIBLE_NARROW__ISO_
  5
9C1
 10
-2.29755
 20
13.5999
 30
0.000000
  70
    32
  0
VERTEX
  8
VISIBLE_NARROW__ISO_
  5
9C2
 10
-2.30142
 20
13.5985
 30
0.000000
  70
    32
  0
VERTEX
  8
VISIBLE_NARROW__ISO_
  5
9C3
 10
-2.30529
 20
13.5972
 30
0.000000
  70
    32
  0
VERTEX
  8
VISIBLE_NARROW__ISO_
  5
9C4
 10
-2.30916
 20
13.5958
 30
0.000000
  70
    32
  0
VERTEX
  8
VISIBLE_NARROW__ISO_
  5
9C5
 10
-2.31302
 20
13.5944
 30
0.000000
  70
    32
  0
VERTEX
  8
VISIBLE_NARROW__ISO_
  5
9C6
 10
-2.31688
 20
13.5931
 30
0.000000
  70
    32
  0
VERTEX
  8
VISIBLE_NARROW__ISO_
  5
9C7
 10
-2.32074
 20
13.5917
 30
0.000000
  70
    32
  0
VERTEX
  8
VISIBLE_NARROW__ISO_
  5
9C8
 10
-2.32459
 20
13.5902
 30
0.000000
  70
    32
  0
VERTEX
  8
VISIBLE_NARROW__ISO_
  5
9C9
 10
-2.32843
 20
13.5888
 30
0.000000
  70
    32
  0
VERTEX
  8
VISIBLE_NARROW__ISO_
  5
9CA
 10
-2.33227
 20
13.5874
 30
0.000000
  70
    32
  0
VERTEX
  8
VISIBLE_NARROW__ISO_
  5
9CB
 10
-2.33611
 20
13.5859
 30
0.000000
  70
    32
  0
VERTEX
  8
VISIBLE_NARROW__ISO_
  5
9CC
 10
-2.33994
 20
13.5845
 30
0.000000
  70
    32
  0
VERTEX
  8
VISIBLE_NARROW__ISO_
  5
9CD
 10
-2.34377
 20
13.5830
 30
0.000000
  70
    32
  0
VERTEX
  8
VISIBLE_NARROW__ISO_
  5
9CE
 10
-2.34759
 20
13.5815
 30
0.000000
  70
    32
  0
VERTEX
  8
VISIBLE_NARROW__ISO_
  5
9CF
 10
-2.35141
 20
13.5800
 30
0.000000
  70
    32
  0
VERTEX
  8
VISIBLE_NARROW__ISO_
  5
9D0
 10
-2.35523
 20
13.5785
 30
0.000000
  70
    32
  0
VERTEX
  8
VISIBLE_NARROW__ISO_
  5
9D1
 10
-2.35904
 20
13.5770
 30
0.000000
  70
    32
  0
VERTEX
  8
VISIBLE_NARROW__ISO_
  5
9D2
 10
-2.36284
 20
13.5755
 30
0.000000
  70
    32
  0
VERTEX
  8
VISIBLE_NARROW__ISO_
  5
9D3
 10
-2.36664
 20
13.5739
 30
0.000000
  70
    32
  0
VERTEX
  8
VISIBLE_NARROW__ISO_
  5
9D4
 10
-2.37044
 20
13.5724
 30
0.000000
  70
    32
  0
VERTEX
  8
VISIBLE_NARROW__ISO_
  5
9D5
 10
-2.37423
 20
13.5708
 30
0.000000
  70
    32
  0
VERTEX
  8
VISIBLE_NARROW__ISO_
  5
9D6
 10
-2.37801
 20
13.5693
 30
0.000000
  70
    32
  0
VERTEX
  8
VISIBLE_NARROW__ISO_
  5
9D7
 10
-2.38180
 20
13.5677
 30
0.000000
  70
    32
  0
VERTEX
  8
VISIBLE_NARROW__ISO_
  5
9D8
 10
-2.38557
 20
13.5661
 30
0.000000
  70
    32
  0
VERTEX
  8
VISIBLE_NARROW__ISO_
  5
9D9
 10
-2.38934
 20
13.5645
 30
0.000000
  70
    32
  0
VERTEX
  8
VISIBLE_NARROW__ISO_
  5
9DA
 10
-2.39311
 20
13.5628
 30
0.000000
  70
    32
  0
VERTEX
  8
VISIBLE_NARROW__ISO_
  5
9DB
 10
-2.39687
 20
13.5612
 30
0.000000
  70
    32
  0
VERTEX
  8
VISIBLE_NARROW__ISO_
  5
9DC
 10
-2.40063
 20
13.5596
 30
0.000000
  70
    32
  0
VERTEX
  8
VISIBLE_NARROW__ISO_
  5
9DD
 10
-2.40438
 20
13.5579
 30
0.000000
  70
    32
  0
VERTEX
  8
VISIBLE_NARROW__ISO_
  5
9DE
 10
-2.40812
 20
13.5562
 30
0.000000
  70
    32
  0
VERTEX
  8
VISIBLE_NARROW__ISO_
  5
9DF
 10
-2.41186
 20
13.5546
 30
0.000000
  70
    32
  0
VERTEX
  8
VISIBLE_NARROW__ISO_
  5
9E0
 10
-2.41560
 20
13.5529
 30
0.000000
  70
    32
  0
VERTEX
  8
VISIBLE_NARROW__ISO_
  5
9E1
 10
-2.41933
 20
13.5512
 30
0.000000
  70
    32
  0
VERTEX
  8
VISIBLE_NARROW__ISO_
  5
9E2
 10
-2.42305
 20
13.5494
 30
0.000000
  70
    32
  0
VERTEX
  8
VISIBLE_NARROW__ISO_
  5
9E3
 10
-2.42677
 20
13.5477
 30
0.000000
  70
    32
  0
VERTEX
  8
VISIBLE_NARROW__ISO_
  5
9E4
 10
-2.43049
 20
13.5460
 30
0.000000
  70
    32
  0
VERTEX
  8
VISIBLE_NARROW__ISO_
  5
9E5
 10
-2.43420
 20
13.5442
 30
0.000000
  70
    32
  0
VERTEX
  8
VISIBLE_NARROW__ISO_
  5
9E6
 10
-2.43790
 20
13.5425
 30
0.000000
  70
    32
  0
VERTEX
  8
VISIBLE_NARROW__ISO_
  5
9E7
 10
-2.44160
 20
13.5407
 30
0.000000
  70
    32
  0
VERTEX
  8
VISIBLE_NARROW__ISO_
  5
9E8
 10
-2.44529
 20
13.5389
 30
0.000000
  70
    32
  0
VERTEX
  8
VISIBLE_NARROW__ISO_
  5
9E9
 10
-2.44898
 20
13.5371
 30
0.000000
  70
    32
  0
VERTEX
  8
VISIBLE_NARROW__ISO_
  5
9EA
 10
-2.45266
 20
13.5353
 30
0.000000
  70
    32
  0
VERTEX
  8
VISIBLE_NARROW__ISO_
  5
9EB
 10
-2.45634
 20
13.5335
 30
0.000000
  70
    32
  0
VERTEX
  8
VISIBLE_NARROW__ISO_
  5
9EC
 10
-2.46001
 20
13.5317
 30
0.000000
  70
    32
  0
VERTEX
  8
VISIBLE_NARROW__ISO_
  5
9ED
 10
-2.46367
 20
13.5298
 30
0.000000
  70
    32
  0
VERTEX
  8
VISIBLE_NARROW__ISO_
  5
9EE
 10
-2.46733
 20
13.5280
 30
0.000000
  70
    32
  0
VERTEX
  8
VISIBLE_NARROW__ISO_
  5
9EF
 10
-2.47098
 20
13.5261
 30
0.000000
  70
    32
  0
VERTEX
  8
VISIBLE_NARROW__ISO_
  5
9F0
 10
-2.47463
 20
13.5242
 30
0.000000
  70
    32
  0
VERTEX
  8
VISIBLE_NARROW__ISO_
  5
9F1
 10
-2.47827
 20
13.5224
 30
0.000000
  70
    32
  0
VERTEX
  8
VISIBLE_NARROW__ISO_
  5
9F2
 10
-2.48191
 20
13.5205
 30
0.000000
  70
    32
  0
VERTEX
  8
VISIBLE_NARROW__ISO_
  5
9F3
 10
-2.48554
 20
13.5185
 30
0.000000
  70
    32
  0
VERTEX
  8
VISIBLE_NARROW__ISO_
  5
9F4
 10
-2.48916
 20
13.5166
 30
0.000000
  70
    32
  0
VERTEX
  8
VISIBLE_NARROW__ISO_
  5
9F5
 10
-2.49278
 20
13.5147
 30
0.000000
  70
    32
  0
VERTEX
  8
VISIBLE_NARROW__ISO_
  5
9F6
 10
-2.49639
 20
13.5128
 30
0.000000
  70
    32
  0
VERTEX
  8
VISIBLE_NARROW__ISO_
  5
9F7
 10
-2.50000
 20
13.5108
 30
0.000000
  70
    32
  0
VERTEX
  8
VISIBLE_NARROW__ISO_
  5
9F8
 10
-2.50360
 20
13.5088
 30
0.000000
  70
    32
  0
VERTEX
  8
VISIBLE_NARROW__ISO_
  5
9F9
 10
-2.50719
 20
13.5069
 30
0.000000
  70
    32
  0
VERTEX
  8
VISIBLE_NARROW__ISO_
  5
9FA
 10
-2.51078
 20
13.5049
 30
0.000000
  70
    32
  0
VERTEX
  8
VISIBLE_NARROW__ISO_
  5
9FB
 10
-2.51436
 20
13.5029
 30
0.000000
  70
    32
  0
VERTEX
  8
VISIBLE_NARROW__ISO_
  5
9FC
 10
-2.51794
 20
13.5009
 30
0.000000
  70
    32
  0
VERTEX
  8
VISIBLE_NARROW__ISO_
  5
9FD
 10
-2.52151
 20
13.4989
 30
0.000000
  70
    32
  0
VERTEX
  8
VISIBLE_NARROW__ISO_
  5
9FE
 10
-2.52507
 20
13.4968
 30
0.000000
  70
    32
  0
VERTEX
  8
VISIBLE_NARROW__ISO_
  5
9FF
 10
-2.52863
 20
13.4948
 30
0.000000
  70
    32
  0
VERTEX
  8
VISIBLE_NARROW__ISO_
  5
A00
 10
-2.53218
 20
13.4927
 30
0.000000
  70
    32
  0
VERTEX
  8
VISIBLE_NARROW__ISO_
  5
A01
 10
-2.53573
 20
13.4907
 30
0.000000
  70
    32
  0
VERTEX
  8
VISIBLE_NARROW__ISO_
  5
A02
 10
-2.53926
 20
13.4886
 30
0.000000
  70
    32
  0
VERTEX
  8
VISIBLE_NARROW__ISO_
  5
A03
 10
-2.54280
 20
13.4865
 30
0.000000
  70
    32
  0
VERTEX
  8
VISIBLE_NARROW__ISO_
  5
A04
 10
-2.54632
 20
13.4844
 30
0.000000
  70
    32
  0
VERTEX
  8
VISIBLE_NARROW__ISO_
  5
A05
 10
-2.54984
 20
13.4823
 30
0.000000
  70
    32
  0
VERTEX
  8
VISIBLE_NARROW__ISO_
  5
A06
 10
-2.55335
 20
13.4802
 30
0.000000
  70
    32
  0
VERTEX
  8
VISIBLE_NARROW__ISO_
  5
A07
 10
-2.55686
 20
13.4781
 30
0.000000
  70
    32
  0
VERTEX
  8
VISIBLE_NARROW__ISO_
  5
A08
 10
-2.56036
 20
13.4759
 30
0.000000
  70
    32
  0
VERTEX
  8
VISIBLE_NARROW__ISO_
  5
A09
 10
-2.56385
 20
13.4738
 30
0.000000
  70
    32
  0
VERTEX
  8
VISIBLE_NARROW__ISO_
  5
A0A
 10
-2.56734
 20
13.4716
 30
0.000000
  70
    32
  0
VERTEX
  8
VISIBLE_NARROW__ISO_
  5
A0B
 10
-2.57082
 20
13.4695
 30
0.000000
  70
    32
  0
VERTEX
  8
VISIBLE_NARROW__ISO_
  5
A0C
 10
-2.57429
 20
13.4673
 30
0.000000
  70
    32
  0
VERTEX
  8
VISIBLE_NARROW__ISO_
  5
A0D
 10
-2.57776
 20
13.4651
 30
0.000000
  70
    32
  0
VERTEX
  8
VISIBLE_NARROW__ISO_
  5
A0E
 10
-2.58122
 20
13.4629
 30
0.000000
  70
    32
  0
VERTEX
  8
VISIBLE_NARROW__ISO_
  5
A0F
 10
-2.58467
 20
13.4607
 30
0.000000
  70
    32
  0
VERTEX
  8
VISIBLE_NARROW__ISO_
  5
A10
 10
-2.58811
 20
13.4584
 30
0.000000
  70
    32
  0
VERTEX
  8
VISIBLE_NARROW__ISO_
  5
A11
 10
-2.59155
 20
13.4562
 30
0.000000
  70
    32
  0
VERTEX
  8
VISIBLE_NARROW__ISO_
  5
A12
 10
-2.59499
 20
13.4540
 30
0.000000
  70
    32
  0
VERTEX
  8
VISIBLE_NARROW__ISO_
  5
A13
 10
-2.59841
 20
13.4517
 30
0.000000
  70
    32
  0
VERTEX
  8
VISIBLE_NARROW__ISO_
  5
A14
 10
-2.60183
 20
13.4494
 30
0.000000
  70
    32
  0
VERTEX
  8
VISIBLE_NARROW__ISO_
  5
A15
 10
-2.60524
 20
13.4472
 30
0.000000
  70
    32
  0
VERTEX
  8
VISIBLE_NARROW__ISO_
  5
A16
 10
-2.60865
 20
13.4449
 30
0.000000
  70
    32
  0
VERTEX
  8
VISIBLE_NARROW__ISO_
  5
A17
 10
-2.61204
 20
13.4426
 30
0.000000
  70
    32
  0
VERTEX
  8
VISIBLE_NARROW__ISO_
  5
A18
 10
-2.61543
 20
13.4403
 30
0.000000
  70
    32
  0
VERTEX
  8
VISIBLE_NARROW__ISO_
  5
A19
 10
-2.61882
 20
13.4380
 30
0.000000
  70
    32
  0
VERTEX
  8
VISIBLE_NARROW__ISO_
  5
A1A
 10
-2.62219
 20
13.4356
 30
0.000000
  70
    32
  0
VERTEX
  8
VISIBLE_NARROW__ISO_
  5
A1B
 10
-2.62556
 20
13.4333
 30
0.000000
  70
    32
  0
VERTEX
  8
VISIBLE_NARROW__ISO_
  5
A1C
 10
-2.62892
 20
13.4309
 30
0.000000
  70
    32
  0
VERTEX
  8
VISIBLE_NARROW__ISO_
  5
A1D
 10
-2.63228
 20
13.4286
 30
0.000000
  70
    32
  0
VERTEX
  8
VISIBLE_NARROW__ISO_
  5
A1E
 10
-2.63563
 20
13.4262
 30
0.000000
  70
    32
  0
VERTEX
  8
VISIBLE_NARROW__ISO_
  5
A1F
 10
-2.63897
 20
13.4238
 30
0.000000
  70
    32
  0
VERTEX
  8
VISIBLE_NARROW__ISO_
  5
A20
 10
-2.64230
 20
13.4215
 30
0.000000
  70
    32
  0
VERTEX
  8
VISIBLE_NARROW__ISO_
  5
A21
 10
-2.64562
 20
13.4191
 30
0.000000
  70
    32
  0
VERTEX
  8
VISIBLE_NARROW__ISO_
  5
A22
 10
-2.64894
 20
13.4166
 30
0.000000
  70
    32
  0
VERTEX
  8
VISIBLE_NARROW__ISO_
  5
A23
 10
-2.65225
 20
13.4142
 30
0.000000
  70
    32
  0
VERTEX
  8
VISIBLE_NARROW__ISO_
  5
A24
 10
-2.65556
 20
13.4118
 30
0.000000
  70
    32
  0
VERTEX
  8
VISIBLE_NARROW__ISO_
  5
A25
 10
-2.65885
 20
13.4093
 30
0.000000
  70
    32
  0
VERTEX
  8
VISIBLE_NARROW__ISO_
  5
A26
 10
-2.66214
 20
13.4069
 30
0.000000
  70
    32
  0
VERTEX
  8
VISIBLE_NARROW__ISO_
  5
A27
 10
-2.66542
 20
13.4044
 30
0.000000
  70
    32
  0
VERTEX
  8
VISIBLE_NARROW__ISO_
  5
A28
 10
-2.66869
 20
13.4020
 30
0.000000
  70
    32
  0
VERTEX
  8
VISIBLE_NARROW__ISO_
  5
A29
 10
-2.67196
 20
13.3995
 30
0.000000
  70
    32
  0
VERTEX
  8
VISIBLE_NARROW__ISO_
  5
A2A
 10
-2.67522
 20
13.3970
 30
0.000000
  70
    32
  0
VERTEX
  8
VISIBLE_NARROW__ISO_
  5
A2B
 10
-2.67847
 20
13.3945
 30
0.000000
  70
    32
  0
VERTEX
  8
VISIBLE_NARROW__ISO_
  5
A2C
 10
-2.68171
 20
13.3920
 30
0.000000
  70
    32
  0
VERTEX
  8
VISIBLE_NARROW__ISO_
  5
A2D
 10
-2.68494
 20
13.3895
 30
0.000000
  70
    32
  0
VERTEX
  8
VISIBLE_NARROW__ISO_
  5
A2E
 10
-2.68817
 20
13.3869
 30
0.000000
  70
    32
  0
VERTEX
  8
VISIBLE_NARROW__ISO_
  5
A2F
 10
-2.69139
 20
13.3844
 30
0.000000
  70
    32
  0
VERTEX
  8
VISIBLE_NARROW__ISO_
  5
A30
 10
-2.69460
 20
13.3818
 30
0.000000
  70
    32
  0
VERTEX
  8
VISIBLE_NARROW__ISO_
  5
A31
 10
-2.69780
 20
13.3793
 30
0.000000
  70
    32
  0
VERTEX
  8
VISIBLE_NARROW__ISO_
  5
A32
 10
-2.70100
 20
13.3767
 30
0.000000
  70
    32
  0
VERTEX
  8
VISIBLE_NARROW__ISO_
  5
A33
 10
-2.70419
 20
13.3741
 30
0.000000
  70
    32
  0
VERTEX
  8
VISIBLE_NARROW__ISO_
  5
A34
 10
-2.70736
 20
13.3715
 30
0.000000
  70
    32
  0
VERTEX
  8
VISIBLE_NARROW__ISO_
  5
A35
 10
-2.71054
 20
13.3689
 30
0.000000
  70
    32
  0
VERTEX
  8
VISIBLE_NARROW__ISO_
  5
A36
 10
-2.71370
 20
13.3663
 30
0.000000
  70
    32
  0
VERTEX
  8
VISIBLE_NARROW__ISO_
  5
A37
 10
-2.71685
 20
13.3637
 30
0.000000
  70
    32
  0
VERTEX
  8
VISIBLE_NARROW__ISO_
  5
A38
 10
-2.72000
 20
13.3611
 30
0.000000
  70
    32
  0
VERTEX
  8
VISIBLE_NARROW__ISO_
  5
A39
 10
-2.72314
 20
13.3584
 30
0.000000
  70
    32
  0
VERTEX
  8
VISIBLE_NARROW__ISO_
  5
A3A
 10
-2.72627
 20
13.3558
 30
0.000000
  70
    32
  0
VERTEX
  8
VISIBLE_NARROW__ISO_
  5
A3B
 10
-2.72939
 20
13.3531
 30
0.000000
  70
    32
  0
VERTEX
  8
VISIBLE_NARROW__ISO_
  5
A3C
 10
-2.73251
 20
13.3505
 30
0.000000
  70
    32
  0
VERTEX
  8
VISIBLE_NARROW__ISO_
  5
A3D
 10
-2.73561
 20
13.3478
 30
0.000000
  70
    32
  0
VERTEX
  8
VISIBLE_NARROW__ISO_
  5
A3E
 10
-2.73871
 20
13.3451
 30
0.000000
  70
    32
  0
VERTEX
  8
VISIBLE_NARROW__ISO_
  5
A3F
 10
-2.74180
 20
13.3424
 30
0.000000
  70
    32
  0
VERTEX
  8
VISIBLE_NARROW__ISO_
  5
A40
 10
-2.74488
 20
13.3397
 30
0.000000
  70
    32
  0
VERTEX
  8
VISIBLE_NARROW__ISO_
  5
A41
 10
-2.74796
 20
13.3370
 30
0.000000
  70
    32
  0
VERTEX
  8
VISIBLE_NARROW__ISO_
  5
A42
 10
-2.75102
 20
13.3342
 30
0.000000
  70
    32
  0
VERTEX
  8
VISIBLE_NARROW__ISO_
  5
A43
 10
-2.75408
 20
13.3315
 30
0.000000
  70
    32
  0
VERTEX
  8
VISIBLE_NARROW__ISO_
  5
A44
 10
-2.75712
 20
13.3288
 30
0.000000
  70
    32
  0
VERTEX
  8
VISIBLE_NARROW__ISO_
  5
A45
 10
-2.76016
 20
13.3260
 30
0.000000
  70
    32
  0
VERTEX
  8
VISIBLE_NARROW__ISO_
  5
A46
 10
-2.76319
 20
13.3233
 30
0.000000
  70
    32
  0
VERTEX
  8
VISIBLE_NARROW__ISO_
  5
A47
 10
-2.76621
 20
13.3205
 30
0.000000
  70
    32
  0
VERTEX
  8
VISIBLE_NARROW__ISO_
  5
A48
 10
-2.76923
 20
13.3177
 30
0.000000
  70
    32
  0
VERTEX
  8
VISIBLE_NARROW__ISO_
  5
A49
 10
-2.77223
 20
13.3149
 30
0.000000
  70
    32
  0
VERTEX
  8
VISIBLE_NARROW__ISO_
  5
A4A
 10
-2.77523
 20
13.3121
 30
0.000000
  70
    32
  0
VERTEX
  8
VISIBLE_NARROW__ISO_
  5
A4B
 10
-2.77821
 20
13.3093
 30
0.000000
  70
    32
  0
VERTEX
  8
VISIBLE_NARROW__ISO_
  5
A4C
 10
-2.78119
 20
13.3065
 30
0.000000
  70
    32
  0
VERTEX
  8
VISIBLE_NARROW__ISO_
  5
A4D
 10
-2.78416
 20
13.3036
 30
0.000000
  70
    32
  0
VERTEX
  8
VISIBLE_NARROW__ISO_
  5
A4E
 10
-2.78712
 20
13.3008
 30
0.000000
  70
    32
  0
VERTEX
  8
VISIBLE_NARROW__ISO_
  5
A4F
 10
-2.79008
 20
13.2980
 30
0.000000
  70
    32
  0
VERTEX
  8
VISIBLE_NARROW__ISO_
  5
A50
 10
-2.79302
 20
13.2951
 30
0.000000
  70
    32
  0
VERTEX
  8
VISIBLE_NARROW__ISO_
  5
A51
 10
-2.79596
 20
13.2922
 30
0.000000
  70
    32
  0
VERTEX
  8
VISIBLE_NARROW__ISO_
  5
A52
 10
-2.79888
 20
13.2894
 30
0.000000
  70
    32
  0
VERTEX
  8
VISIBLE_NARROW__ISO_
  5
A53
 10
-2.80180
 20
13.2865
 30
0.000000
  70
    32
  0
VERTEX
  8
VISIBLE_NARROW__ISO_
  5
A54
 10
-2.80471
 20
13.2836
 30
0.000000
  70
    32
  0
VERTEX
  8
VISIBLE_NARROW__ISO_
  5
A55
 10
-2.80761
 20
13.2807
 30
0.000000
  70
    32
  0
VERTEX
  8
VISIBLE_NARROW__ISO_
  5
A56
 10
-2.81050
 20
13.2778
 30
0.000000
  70
    32
  0
VERTEX
  8
VISIBLE_NARROW__ISO_
  5
A57
 10
-2.81338
 20
13.2749
 30
0.000000
  70
    32
  0
VERTEX
  8
VISIBLE_NARROW__ISO_
  5
A58
 10
-2.81625
 20
13.2719
 30
0.000000
  70
    32
  0
VERTEX
  8
VISIBLE_NARROW__ISO_
  5
A59
 10
-2.81912
 20
13.2690
 30
0.000000
  70
    32
  0
VERTEX
  8
VISIBLE_NARROW__ISO_
  5
A5A
 10
-2.82197
 20
13.2661
 30
0.000000
  70
    32
  0
VERTEX
  8
VISIBLE_NARROW__ISO_
  5
A5B
 10
-2.82482
 20
13.2631
 30
0.000000
  70
    32
  0
VERTEX
  8
VISIBLE_NARROW__ISO_
  5
A5C
 10
-2.82765
 20
13.2601
 30
0.000000
  70
    32
  0
VERTEX
  8
VISIBLE_NARROW__ISO_
  5
A5D
 10
-2.83048
 20
13.2572
 30
0.000000
  70
    32
  0
VERTEX
  8
VISIBLE_NARROW__ISO_
  5
A5E
 10
-2.83330
 20
13.2542
 30
0.000000
  70
    32
  0
VERTEX
  8
VISIBLE_NARROW__ISO_
  5
A5F
 10
-2.83611
 20
13.2512
 30
0.000000
  70
    32
  0
VERTEX
  8
VISIBLE_NARROW__ISO_
  5
A60
 10
-2.83891
 20
13.2482
 30
0.000000
  70
    32
  0
VERTEX
  8
VISIBLE_NARROW__ISO_
  5
A61
 10
-2.84170
 20
13.2452
 30
0.000000
  70
    32
  0
VERTEX
  8
VISIBLE_NARROW__ISO_
  5
A62
 10
-2.84448
 20
13.2422
 30
0.000000
  70
    32
  0
VERTEX
  8
VISIBLE_NARROW__ISO_
  5
A63
 10
-2.84725
 20
13.2392
 30
0.000000
  70
    32
  0
VERTEX
  8
VISIBLE_NARROW__ISO_
  5
A64
 10
-2.85001
 20
13.2361
 30
0.000000
  70
    32
  0
VERTEX
  8
VISIBLE_NARROW__ISO_
  5
A65
 10
-2.85277
 20
13.2331
 30
0.000000
  70
    32
  0
VERTEX
  8
VISIBLE_NARROW__ISO_
  5
A66
 10
-2.85551
 20
13.2301
 30
0.000000
  70
    32
  0
VERTEX
  8
VISIBLE_NARROW__ISO_
  5
A67
 10
-2.85824
 20
13.2270
 30
0.000000
  70
    32
  0
VERTEX
  8
VISIBLE_NARROW__ISO_
  5
A68
 10
-2.86097
 20
13.2239
 30
0.000000
  70
    32
  0
VERTEX
  8
VISIBLE_NARROW__ISO_
  5
A69
 10
-2.86369
 20
13.2209
 30
0.000000
  70
    32
  0
VERTEX
  8
VISIBLE_NARROW__ISO_
  5
A6A
 10
-2.86639
 20
13.2178
 30
0.000000
  70
    32
  0
VERTEX
  8
VISIBLE_NARROW__ISO_
  5
A6B
 10
-2.86909
 20
13.2147
 30
0.000000
  70
    32
  0
VERTEX
  8
VISIBLE_NARROW__ISO_
  5
A6C
 10
-2.87178
 20
13.2116
 30
0.000000
  70
    32
  0
VERTEX
  8
VISIBLE_NARROW__ISO_
  5
A6D
 10
-2.87446
 20
13.2085
 30
0.000000
  70
    32
  0
VERTEX
  8
VISIBLE_NARROW__ISO_
  5
A6E
 10
-2.87712
 20
13.2054
 30
0.000000
  70
    32
  0
VERTEX
  8
VISIBLE_NARROW__ISO_
  5
A6F
 10
-2.87978
 20
13.2022
 30
0.000000
  70
    32
  0
VERTEX
  8
VISIBLE_NARROW__ISO_
  5
A70
 10
-2.88243
 20
13.1991
 30
0.000000
  70
    32
  0
VERTEX
  8
VISIBLE_NARROW__ISO_
  5
A71
 10
-2.88507
 20
13.1960
 30
0.000000
  70
    32
  0
VERTEX
  8
VISIBLE_NARROW__ISO_
  5
A72
 10
-2.88770
 20
13.1928
 30
0.000000
  70
    32
  0
VERTEX
  8
VISIBLE_NARROW__ISO_
  5
A73
 10
-2.89032
 20
13.1897
 30
0.000000
  70
    32
  0
VERTEX
  8
VISIBLE_NARROW__ISO_
  5
A74
 10
-2.89293
 20
13.1865
 30
0.000000
  70
    32
  0
VERTEX
  8
VISIBLE_NARROW__ISO_
  5
A75
 10
-2.89553
 20
13.1833
 30
0.000000
  70
    32
  0
VERTEX
  8
VISIBLE_NARROW__ISO_
  5
A76
 10
-2.89812
 20
13.1802
 30
0.000000
  70
    32
  0
VERTEX
  8
VISIBLE_NARROW__ISO_
  5
A77
 10
-2.90071
 20
13.1770
 30
0.000000
  70
    32
  0
VERTEX
  8
VISIBLE_NARROW__ISO_
  5
A78
 10
-2.90328
 20
13.1738
 30
0.000000
  70
    32
  0
VERTEX
  8
VISIBLE_NARROW__ISO_
  5
A79
 10
-2.90584
 20
13.1706
 30
0.000000
  70
    32
  0
VERTEX
  8
VISIBLE_NARROW__ISO_
  5
A7A
 10
-2.90839
 20
13.1674
 30
0.000000
  70
    32
  0
VERTEX
  8
VISIBLE_NARROW__ISO_
  5
A7B
 10
-2.91093
 20
13.1642
 30
0.000000
  70
    32
  0
VERTEX
  8
VISIBLE_NARROW__ISO_
  5
A7C
 10
-2.91347
 20
13.1609
 30
0.000000
  70
    32
  0
VERTEX
  8
VISIBLE_NARROW__ISO_
  5
A7D
 10
-2.91599
 20
13.1577
 30
0.000000
  70
    32
  0
VERTEX
  8
VISIBLE_NARROW__ISO_
  5
A7E
 10
-2.91850
 20
13.1545
 30
0.000000
  70
    32
  0
VERTEX
  8
VISIBLE_NARROW__ISO_
  5
A7F
 10
-2.92100
 20
13.1512
 30
0.000000
  70
    32
  0
VERTEX
  8
VISIBLE_NARROW__ISO_
  5
A80
 10
-2.92349
 20
13.1479
 30
0.000000
  70
    32
  0
VERTEX
  8
VISIBLE_NARROW__ISO_
  5
A81
 10
-2.92598
 20
13.1447
 30
0.000000
  70
    32
  0
VERTEX
  8
VISIBLE_NARROW__ISO_
  5
A82
 10
-2.92845
 20
13.1414
 30
0.000000
  70
    32
  0
VERTEX
  8
VISIBLE_NARROW__ISO_
  5
A83
 10
-2.93091
 20
13.1381
 30
0.000000
  70
    32
  0
VERTEX
  8
VISIBLE_NARROW__ISO_
  5
A84
 10
-2.93336
 20
13.1348
 30
0.000000
  70
    32
  0
VERTEX
  8
VISIBLE_NARROW__ISO_
  5
A85
 10
-2.93580
 20
13.1315
 30
0.000000
  70
    32
  0
VERTEX
  8
VISIBLE_NARROW__ISO_
  5
A86
 10
-2.93824
 20
13.1282
 30
0.000000
  70
    32
  0
VERTEX
  8
VISIBLE_NARROW__ISO_
  5
A87
 10
-2.94066
 20
13.1249
 30
0.000000
  70
    32
  0
VERTEX
  8
VISIBLE_NARROW__ISO_
  5
A88
 10
-2.94307
 20
13.1216
 30
0.000000
  70
    32
  0
VERTEX
  8
VISIBLE_NARROW__ISO_
  5
A89
 10
-2.94547
 20
13.1183
 30
0.000000
  70
    32
  0
VERTEX
  8
VISIBLE_NARROW__ISO_
  5
A8A
 10
-2.94786
 20
13.1150
 30
0.000000
  70
    32
  0
VERTEX
  8
VISIBLE_NARROW__ISO_
  5
A8B
 10
-2.95024
 20
13.1116
 30
0.000000
  70
    32
  0
VERTEX
  8
VISIBLE_NARROW__ISO_
  5
A8C
 10
-2.95261
 20
13.1083
 30
0.000000
  70
    32
  0
VERTEX
  8
VISIBLE_NARROW__ISO_
  5
A8D
 10
-2.95497
 20
13.1049
 30
0.000000
  70
    32
  0
VERTEX
  8
VISIBLE_NARROW__ISO_
  5
A8E
 10
-2.95732
 20
13.1016
 30
0.000000
  70
    32
  0
VERTEX
  8
VISIBLE_NARROW__ISO_
  5
A8F
 10
-2.95966
 20
13.0982
 30
0.000000
  70
    32
  0
VERTEX
  8
VISIBLE_NARROW__ISO_
  5
A90
 10
-2.96199
 20
13.0948
 30
0.000000
  70
    32
  0
VERTEX
  8
VISIBLE_NARROW__ISO_
  5
A91
 10
-2.96431
 20
13.0914
 30
0.000000
  70
    32
  0
VERTEX
  8
VISIBLE_NARROW__ISO_
  5
A92
 10
-2.96661
 20
13.0880
 30
0.000000
  70
    32
  0
VERTEX
  8
VISIBLE_NARROW__ISO_
  5
A93
 10
-2.96891
 20
13.0846
 30
0.000000
  70
    32
  0
VERTEX
  8
VISIBLE_NARROW__ISO_
  5
A94
 10
-2.97120
 20
13.0812
 30
0.000000
  70
    32
  0
VERTEX
  8
VISIBLE_NARROW__ISO_
  5
A95
 10
-2.97347
 20
13.0778
 30
0.000000
  70
    32
  0
VERTEX
  8
VISIBLE_NARROW__ISO_
  5
A96
 10
-2.97574
 20
13.0744
 30
0.000000
  70
    32
  0
VERTEX
  8
VISIBLE_NARROW__ISO_
  5
A97
 10
-2.97799
 20
13.0710
 30
0.000000
  70
    32
  0
VERTEX
  8
VISIBLE_NARROW__ISO_
  5
A98
 10
-2.98024
 20
13.0676
 30
0.000000
  70
    32
  0
VERTEX
  8
VISIBLE_NARROW__ISO_
  5
A99
 10
-2.98247
 20
13.0641
 30
0.000000
  70
    32
  0
VERTEX
  8
VISIBLE_NARROW__ISO_
  5
A9A
 10
-2.98470
 20
13.0607
 30
0.000000
  70
    32
  0
VERTEX
  8
VISIBLE_NARROW__ISO_
  5
A9B
 10
-2.98691
 20
13.0572
 30
0.000000
  70
    32
  0
VERTEX
  8
VISIBLE_NARROW__ISO_
  5
A9C
 10
-2.98911
 20
13.0538
 30
0.000000
  70
    32
  0
VERTEX
  8
VISIBLE_NARROW__ISO_
  5
A9D
 10
-2.99130
 20
13.0503
 30
0.000000
  70
    32
  0
VERTEX
  8
VISIBLE_NARROW__ISO_
  5
A9E
 10
-2.99348
 20
13.0468
 30
0.000000
  70
    32
  0
VERTEX
  8
VISIBLE_NARROW__ISO_
  5
A9F
 10
-2.99565
 20
13.0433
 30
0.000000
  70
    32
  0
VERTEX
  8
VISIBLE_NARROW__ISO_
  5
AA0
 10
-2.99781
 20
13.0398
 30
0.000000
  70
    32
  0
VERTEX
  8
VISIBLE_NARROW__ISO_
  5
AA1
 10
-2.99996
 20
13.0364
 30
0.000000
  70
    32
  0
VERTEX
  8
VISIBLE_NARROW__ISO_
  5
AA2
 10
-3.00209
 20
13.0329
 30
0.000000
  70
    32
  0
VERTEX
  8
VISIBLE_NARROW__ISO_
  5
AA3
 10
-3.00422
 20
13.0293
 30
0.000000
  70
    32
  0
VERTEX
  8
VISIBLE_NARROW__ISO_
  5
AA4
 10
-3.00634
 20
13.0258
 30
0.000000
  70
    32
  0
VERTEX
  8
VISIBLE_NARROW__ISO_
  5
AA5
 10
-3.00844
 20
13.0223
 30
0.000000
  70
    32
  0
VERTEX
  8
VISIBLE_NARROW__ISO_
  5
AA6
 10
-3.01053
 20
13.0188
 30
0.000000
  70
    32
  0
VERTEX
  8
VISIBLE_NARROW__ISO_
  5
AA7
 10
-3.01262
 20
13.0153
 30
0.000000
  70
    32
  0
VERTEX
  8
VISIBLE_NARROW__ISO_
  5
AA8
 10
-3.01469
 20
13.0117
 30
0.000000
  70
    32
  0
VERTEX
  8
VISIBLE_NARROW__ISO_
  5
AA9
 10
-3.01675
 20
13.0082
 30
0.000000
  70
    32
  0
VERTEX
  8
VISIBLE_NARROW__ISO_
  5
AAA
 10
-3.01880
 20
13.0046
 30
0.000000
  70
    32
  0
VERTEX
  8
VISIBLE_NARROW__ISO_
  5
AAB
 10
-3.02084
 20
13.0011
 30
0.000000
  70
    32
  0
VERTEX
  8
VISIBLE_NARROW__ISO_
  5
AAC
 10
-3.02287
 20
12.9975
 30
0.000000
  70
    32
  0
VERTEX
  8
VISIBLE_NARROW__ISO_
  5
AAD
 10
-3.02489
 20
12.9939
 30
0.000000
  70
    32
  0
VERTEX
  8
VISIBLE_NARROW__ISO_
  5
AAE
 10
-3.02689
 20
12.9904
 30
0.000000
  70
    32
  0
VERTEX
  8
VISIBLE_NARROW__ISO_
  5
AAF
 10
-3.02889
 20
12.9868
 30
0.000000
  70
    32
  0
VERTEX
  8
VISIBLE_NARROW__ISO_
  5
AB0
 10
-3.03087
 20
12.9832
 30
0.000000
  70
    32
  0
VERTEX
  8
VISIBLE_NARROW__ISO_
  5
AB1
 10
-3.03285
 20
12.9796
 30
0.000000
  70
    32
  0
VERTEX
  8
VISIBLE_NARROW__ISO_
  5
AB2
 10
-3.03481
 20
12.9760
 30
0.000000
  70
    32
  0
VERTEX
  8
VISIBLE_NARROW__ISO_
  5
AB3
 10
-3.03676
 20
12.9724
 30
0.000000
  70
    32
  0
VERTEX
  8
VISIBLE_NARROW__ISO_
  5
AB4
 10
-3.03870
 20
12.9688
 30
0.000000
  70
    32
  0
VERTEX
  8
VISIBLE_NARROW__ISO_
  5
AB5
 10
-3.04063
 20
12.9651
 30
0.000000
  70
    32
  0
VERTEX
  8
VISIBLE_NARROW__ISO_
  5
AB6
 10
-3.04255
 20
12.9615
 30
0.000000
  70
    32
  0
VERTEX
  8
VISIBLE_NARROW__ISO_
  5
AB7
 10
-3.04445
 20
12.9579
 30
0.000000
  70
    32
  0
VERTEX
  8
VISIBLE_NARROW__ISO_
  5
AB8
 10
-3.04635
 20
12.9543
 30
0.000000
  70
    32
  0
VERTEX
  8
VISIBLE_NARROW__ISO_
  5
AB9
 10
-3.04823
 20
12.9506
 30
0.000000
  70
    32
  0
VERTEX
  8
VISIBLE_NARROW__ISO_
  5
ABA
 10
-3.05011
 20
12.9470
 30
0.000000
  70
    32
  0
VERTEX
  8
VISIBLE_NARROW__ISO_
  5
ABB
 10
-3.05197
 20
12.9433
 30
0.000000
  70
    32
  0
VERTEX
  8
VISIBLE_NARROW__ISO_
  5
ABC
 10
-3.05382
 20
12.9397
 30
0.000000
  70
    32
  0
VERTEX
  8
VISIBLE_NARROW__ISO_
  5
ABD
 10
-3.05566
 20
12.9360
 30
0.000000
  70
    32
  0
VERTEX
  8
VISIBLE_NARROW__ISO_
  5
ABE
 10
-3.05749
 20
12.9323
 30
0.000000
  70
    32
  0
VERTEX
  8
VISIBLE_NARROW__ISO_
  5
ABF
 10
-3.05931
 20
12.9286
 30
0.000000
  70
    32
  0
VERTEX
  8
VISIBLE_NARROW__ISO_
  5
AC0
 10
-3.06111
 20
12.9250
 30
0.000000
  70
    32
  0
VERTEX
  8
VISIBLE_NARROW__ISO_
  5
AC1
 10
-3.06291
 20
12.9213
 30
0.000000
  70
    32
  0
VERTEX
  8
VISIBLE_NARROW__ISO_
  5
AC2
 10
-3.06469
 20
12.9176
 30
0.000000
  70
    32
  0
VERTEX
  8
VISIBLE_NARROW__ISO_
  5
AC3
 10
-3.06646
 20
12.9139
 30
0.000000
  70
    32
  0
VERTEX
  8
VISIBLE_NARROW__ISO_
  5
AC4
 10
-3.06822
 20
12.9102
 30
0.000000
  70
    32
  0
VERTEX
  8
VISIBLE_NARROW__ISO_
  5
AC5
 10
-3.06997
 20
12.9065
 30
0.000000
  70
    32
  0
VERTEX
  8
VISIBLE_NARROW__ISO_
  5
AC6
 10
-3.07171
 20
12.9028
 30
0.000000
  70
    32
  0
VERTEX
  8
VISIBLE_NARROW__ISO_
  5
AC7
 10
-3.07344
 20
12.8990
 30
0.000000
  70
    32
  0
VERTEX
  8
VISIBLE_NARROW__ISO_
  5
AC8
 10
-3.07515
 20
12.8953
 30
0.000000
  70
    32
  0
VERTEX
  8
VISIBLE_NARROW__ISO_
  5
AC9
 10
-3.07685
 20
12.8916
 30
0.000000
  70
    32
  0
VERTEX
  8
VISIBLE_NARROW__ISO_
  5
ACA
 10
-3.07855
 20
12.8878
 30
0.000000
  70
    32
  0
VERTEX
  8
VISIBLE_NARROW__ISO_
  5
ACB
 10
-3.08023
 20
12.8841
 30
0.000000
  70
    32
  0
VERTEX
  8
VISIBLE_NARROW__ISO_
  5
ACC
 10
-3.08190
 20
12.8804
 30
0.000000
  70
    32
  0
VERTEX
  8
VISIBLE_NARROW__ISO_
  5
ACD
 10
-3.08355
 20
12.8766
 30
0.000000
  70
    32
  0
VERTEX
  8
VISIBLE_NARROW__ISO_
  5
ACE
 10
-3.08520
 20
12.8729
 30
0.000000
  70
    32
  0
VERTEX
  8
VISIBLE_NARROW__ISO_
  5
ACF
 10
-3.08683
 20
12.8691
 30
0.000000
  70
    32
  0
VERTEX
  8
VISIBLE_NARROW__ISO_
  5
AD0
 10
-3.08846
 20
12.8653
 30
0.000000
  70
    32
  0
VERTEX
  8
VISIBLE_NARROW__ISO_
  5
AD1
 10
-3.09007
 20
12.8616
 30
0.000000
  70
    32
  0
VERTEX
  8
VISIBLE_NARROW__ISO_
  5
AD2
 10
-3.09167
 20
12.8578
 30
0.000000
  70
    32
  0
VERTEX
  8
VISIBLE_NARROW__ISO_
  5
AD3
 10
-3.09326
 20
12.8540
 30
0.000000
  70
    32
  0
VERTEX
  8
VISIBLE_NARROW__ISO_
  5
AD4
 10
-3.09483
 20
12.8502
 30
0.000000
  70
    32
  0
VERTEX
  8
VISIBLE_NARROW__ISO_
  5
AD5
 10
-3.09640
 20
12.8464
 30
0.000000
  70
    32
  0
VERTEX
  8
VISIBLE_NARROW__ISO_
  5
AD6
 10
-3.09795
 20
12.8426
 30
0.000000
  70
    32
  0
VERTEX
  8
VISIBLE_NARROW__ISO_
  5
AD7
 10
-3.09949
 20
12.8388
 30
0.000000
  70
    32
  0
VERTEX
  8
VISIBLE_NARROW__ISO_
  5
AD8
 10
-3.10102
 20
12.8350
 30
0.000000
  70
    32
  0
VERTEX
  8
VISIBLE_NARROW__ISO_
  5
AD9
 10
-3.10254
 20
12.8312
 30
0.000000
  70
    32
  0
VERTEX
  8
VISIBLE_NARROW__ISO_
  5
ADA
 10
-3.10405
 20
12.8274
 30
0.000000
  70
    32
  0
VERTEX
  8
VISIBLE_NARROW__ISO_
  5
ADB
 10
-3.10554
 20
12.8236
 30
0.000000
  70
    32
  0
VERTEX
  8
VISIBLE_NARROW__ISO_
  5
ADC
 10
-3.10703
 20
12.8198
 30
0.000000
  70
    32
  0
VERTEX
  8
VISIBLE_NARROW__ISO_
  5
ADD
 10
-3.10850
 20
12.8159
 30
0.000000
  70
    32
  0
VERTEX
  8
VISIBLE_NARROW__ISO_
  5
ADE
 10
-3.10996
 20
12.8121
 30
0.000000
  70
    32
  0
VERTEX
  8
VISIBLE_NARROW__ISO_
  5
ADF
 10
-3.11141
 20
12.8083
 30
0.000000
  70
    32
  0
VERTEX
  8
VISIBLE_NARROW__ISO_
  5
AE0
 10
-3.11284
 20
12.8044
 30
0.000000
  70
    32
  0
VERTEX
  8
VISIBLE_NARROW__ISO_
  5
AE1
 10
-3.11427
 20
12.8006
 30
0.000000
  70
    32
  0
VERTEX
  8
VISIBLE_NARROW__ISO_
  5
AE2
 10
-3.11568
 20
12.7967
 30
0.000000
  70
    32
  0
VERTEX
  8
VISIBLE_NARROW__ISO_
  5
AE3
 10
-3.11708
 20
12.7929
 30
0.000000
  70
    32
  0
VERTEX
  8
VISIBLE_NARROW__ISO_
  5
AE4
 10
-3.11847
 20
12.7890
 30
0.000000
  70
    32
  0
VERTEX
  8
VISIBLE_NARROW__ISO_
  5
AE5
 10
-3.11984
 20
12.7852
 30
0.000000
  70
    32
  0
VERTEX
  8
VISIBLE_NARROW__ISO_
  5
AE6
 10
-3.12121
 20
12.7813
 30
0.000000
  70
    32
  0
VERTEX
  8
VISIBLE_NARROW__ISO_
  5
AE7
 10
-3.12256
 20
12.7774
 30
0.000000
  70
    32
  0
VERTEX
  8
VISIBLE_NARROW__ISO_
  5
AE8
 10
-3.12390
 20
12.7735
 30
0.000000
  70
    32
  0
VERTEX
  8
VISIBLE_NARROW__ISO_
  5
AE9
 10
-3.12523
 20
12.7697
 30
0.000000
  70
    32
  0
VERTEX
  8
VISIBLE_NARROW__ISO_
  5
AEA
 10
-3.12655
 20
12.7658
 30
0.000000
  70
    32
  0
VERTEX
  8
VISIBLE_NARROW__ISO_
  5
AEB
 10
-3.12785
 20
12.7619
 30
0.000000
  70
    32
  0
VERTEX
  8
VISIBLE_NARROW__ISO_
  5
AEC
 10
-3.12914
 20
12.7580
 30
0.000000
  70
    32
  0
VERTEX
  8
VISIBLE_NARROW__ISO_
  5
AED
 10
-3.13042
 20
12.7541
 30
0.000000
  70
    32
  0
VERTEX
  8
VISIBLE_NARROW__ISO_
  5
AEE
 10
-3.13169
 20
12.7502
 30
0.000000
  70
    32
  0
VERTEX
  8
VISIBLE_NARROW__ISO_
  5
AEF
 10
-3.13295
 20
12.7463
 30
0.000000
  70
    32
  0
VERTEX
  8
VISIBLE_NARROW__ISO_
  5
AF0
 10
-3.13419
 20
12.7424
 30
0.000000
  70
    32
  0
VERTEX
  8
VISIBLE_NARROW__ISO_
  5
AF1
 10
-3.13543
 20
12.7385
 30
0.000000
  70
    32
  0
VERTEX
  8
VISIBLE_NARROW__ISO_
  5
AF2
 10
-3.13665
 20
12.7346
 30
0.000000
  70
    32
  0
VERTEX
  8
VISIBLE_NARROW__ISO_
  5
AF3
 10
-3.13786
 20
12.7307
 30
0.000000
  70
    32
  0
VERTEX
  8
VISIBLE_NARROW__ISO_
  5
AF4
 10
-3.13905
 20
12.7267
 30
0.000000
  70
    32
  0
VERTEX
  8
VISIBLE_NARROW__ISO_
  5
AF5
 10
-3.14024
 20
12.7228
 30
0.000000
  70
    32
  0
VERTEX
  8
VISIBLE_NARROW__ISO_
  5
AF6
 10
-3.14141
 20
12.7189
 30
0.000000
  70
    32
  0
VERTEX
  8
VISIBLE_NARROW__ISO_
  5
AF7
 10
-3.14257
 20
12.7149
 30
0.000000
  70
    32
  0
VERTEX
  8
VISIBLE_NARROW__ISO_
  5
AF8
 10
-3.14372
 20
12.7110
 30
0.000000
  70
    32
  0
VERTEX
  8
VISIBLE_NARROW__ISO_
  5
AF9
 10
-3.14485
 20
12.7071
 30
0.000000
  70
    32
  0
VERTEX
  8
VISIBLE_NARROW__ISO_
  5
AFA
 10
-3.14597
 20
12.7031
 30
0.000000
  70
    32
  0
VERTEX
  8
VISIBLE_NARROW__ISO_
  5
AFB
 10
-3.14709
 20
12.6992
 30
0.000000
  70
    32
  0
VERTEX
  8
VISIBLE_NARROW__ISO_
  5
AFC
 10
-3.14818
 20
12.6952
 30
0.000000
  70
    32
  0
VERTEX
  8
VISIBLE_NARROW__ISO_
  5
AFD
 10
-3.14927
 20
12.6913
 30
0.000000
  70
    32
  0
VERTEX
  8
VISIBLE_NARROW__ISO_
  5
AFE
 10
-3.15035
 20
12.6873
 30
0.000000
  70
    32
  0
VERTEX
  8
VISIBLE_NARROW__ISO_
  5
AFF
 10
-3.15141
 20
12.6834
 30
0.000000
  70
    32
  0
VERTEX
  8
VISIBLE_NARROW__ISO_
  5
B00
 10
-3.15246
 20
12.6794
 30
0.000000
  70
    32
  0
VERTEX
  8
VISIBLE_NARROW__ISO_
  5
B01
 10
-3.15350
 20
12.6754
 30
0.000000
  70
    32
  0
VERTEX
  8
VISIBLE_NARROW__ISO_
  5
B02
 10
-3.15452
 20
12.6715
 30
0.000000
  70
    32
  0
VERTEX
  8
VISIBLE_NARROW__ISO_
  5
B03
 10
-3.15554
 20
12.6675
 30
0.000000
  70
    32
  0
VERTEX
  8
VISIBLE_NARROW__ISO_
  5
B04
 10
-3.15654
 20
12.6635
 30
0.000000
  70
    32
  0
VERTEX
  8
VISIBLE_NARROW__ISO_
  5
B05
 10
-3.15753
 20
12.6595
 30
0.000000
  70
    32
  0
VERTEX
  8
VISIBLE_NARROW__ISO_
  5
B06
 10
-3.15850
 20
12.6555
 30
0.000000
  70
    32
  0
VERTEX
  8
VISIBLE_NARROW__ISO_
  5
B07
 10
-3.15947
 20
12.6516
 30
0.000000
  70
    32
  0
VERTEX
  8
VISIBLE_NARROW__ISO_
  5
B08
 10
-3.16042
 20
12.6476
 30
0.000000
  70
    32
  0
VERTEX
  8
VISIBLE_NARROW__ISO_
  5
B09
 10
-3.16136
 20
12.6436
 30
0.000000
  70
    32
  0
VERTEX
  8
VISIBLE_NARROW__ISO_
  5
B0A
 10
-3.16229
 20
12.6396
 30
0.000000
  70
    32
  0
VERTEX
  8
VISIBLE_NARROW__ISO_
  5
B0B
 10
-3.16321
 20
12.6356
 30
0.000000
  70
    32
  0
VERTEX
  8
VISIBLE_NARROW__ISO_
  5
B0C
 10
-3.16411
 20
12.6316
 30
0.000000
  70
    32
  0
VERTEX
  8
VISIBLE_NARROW__ISO_
  5
B0D
 10
-3.16500
 20
12.6276
 30
0.000000
  70
    32
  0
VERTEX
  8
VISIBLE_NARROW__ISO_
  5
B0E
 10
-3.16588
 20
12.6236
 30
0.000000
  70
    32
  0
VERTEX
  8
VISIBLE_NARROW__ISO_
  5
B0F
 10
-3.16675
 20
12.6196
 30
0.000000
  70
    32
  0
VERTEX
  8
VISIBLE_NARROW__ISO_
  5
B10
 10
-3.16760
 20
12.6156
 30
0.000000
  70
    32
  0
VERTEX
  8
VISIBLE_NARROW__ISO_
  5
B11
 10
-3.16844
 20
12.6116
 30
0.000000
  70
    32
  0
VERTEX
  8
VISIBLE_NARROW__ISO_
  5
B12
 10
-3.16927
 20
12.6075
 30
0.000000
  70
    32
  0
VERTEX
  8
VISIBLE_NARROW__ISO_
  5
B13
 10
-3.17009
 20
12.6035
 30
0.000000
  70
    32
  0
VERTEX
  8
VISIBLE_NARROW__ISO_
  5
B14
 10
-3.17090
 20
12.5995
 30
0.000000
  70
    32
  0
VERTEX
  8
VISIBLE_NARROW__ISO_
  5
B15
 10
-3.17169
 20
12.5955
 30
0.000000
  70
    32
  0
VERTEX
  8
VISIBLE_NARROW__ISO_
  5
B16
 10
-3.17247
 20
12.5915
 30
0.000000
  70
    32
  0
VERTEX
  8
VISIBLE_NARROW__ISO_
  5
B17
 10
-3.17324
 20
12.5874
 30
0.000000
  70
    32
  0
VERTEX
  8
VISIBLE_NARROW__ISO_
  5
B18
 10
-3.17399
 20
12.5834
 30
0.000000
  70
    32
  0
VERTEX
  8
VISIBLE_NARROW__ISO_
  5
B19
 10
-3.17474
 20
12.5794
 30
0.000000
  70
    32
  0
VERTEX
  8
VISIBLE_NARROW__ISO_
  5
B1A
 10
-3.17547
 20
12.5753
 30
0.000000
  70
    32
  0
VERTEX
  8
VISIBLE_NARROW__ISO_
  5
B1B
 10
-3.17619
 20
12.5713
 30
0.000000
  70
    32
  0
VERTEX
  8
VISIBLE_NARROW__ISO_
  5
B1C
 10
-3.17690
 20
12.5673
 30
0.000000
  70
    32
  0
VERTEX
  8
VISIBLE_NARROW__ISO_
  5
B1D
 10
-3.17759
 20
12.5632
 30
0.000000
  70
    32
  0
VERTEX
  8
VISIBLE_NARROW__ISO_
  5
B1E
 10
-3.17827
 20
12.5592
 30
0.000000
  70
    32
  0
VERTEX
  8
VISIBLE_NARROW__ISO_
  5
B1F
 10
-3.17894
 20
12.5551
 30
0.000000
  70
    32
  0
VERTEX
  8
VISIBLE_NARROW__ISO_
  5
B20
 10
-3.17960
 20
12.5511
 30
0.000000
  70
    32
  0
VERTEX
  8
VISIBLE_NARROW__ISO_
  5
B21
 10
-3.18024
 20
12.5470
 30
0.000000
  70
    32
  0
VERTEX
  8
VISIBLE_NARROW__ISO_
  5
B22
 10
-3.18087
 20
12.5430
 30
0.000000
  70
    32
  0
VERTEX
  8
VISIBLE_NARROW__ISO_
  5
B23
 10
-3.18149
 20
12.5389
 30
0.000000
  70
    32
  0
VERTEX
  8
VISIBLE_NARROW__ISO_
  5
B24
 10
-3.18210
 20
12.5349
 30
0.000000
  70
    32
  0
VERTEX
  8
VISIBLE_NARROW__ISO_
  5
B25
 10
-3.18270
 20
12.5308
 30
0.000000
  70
    32
  0
VERTEX
  8
VISIBLE_NARROW__ISO_
  5
B26
 10
-3.18328
 20
12.5268
 30
0.000000
  70
    32
  0
VERTEX
  8
VISIBLE_NARROW__ISO_
  5
B27
 10
-3.18385
 20
12.5227
 30
0.000000
  70
    32
  0
VERTEX
  8
VISIBLE_NARROW__ISO_
  5
B28
 10
-3.18441
 20
12.5186
 30
0.000000
  70
    32
  0
VERTEX
  8
VISIBLE_NARROW__ISO_
  5
B29
 10
-3.18495
 20
12.5146
 30
0.000000
  70
    32
  0
VERTEX
  8
VISIBLE_NARROW__ISO_
  5
B2A
 10
-3.18548
 20
12.5105
 30
0.000000
  70
    32
  0
VERTEX
  8
VISIBLE_NARROW__ISO_
  5
B2B
 10
-3.18600
 20
12.5064
 30
0.000000
  70
    32
  0
VERTEX
  8
VISIBLE_NARROW__ISO_
  5
B2C
 10
-3.18651
 20
12.5024
 30
0.000000
  70
    32
  0
VERTEX
  8
VISIBLE_NARROW__ISO_
  5
B2D
 10
-3.18701
 20
12.4983
 30
0.000000
  70
    32
  0
VERTEX
  8
VISIBLE_NARROW__ISO_
  5
B2E
 10
-3.18749
 20
12.4942
 30
0.000000
  70
    32
  0
VERTEX
  8
VISIBLE_NARROW__ISO_
  5
B2F
 10
-3.18796
 20
12.4902
 30
0.000000
  70
    32
  0
VERTEX
  8
VISIBLE_NARROW__ISO_
  5
B30
 10
-3.18842
 20
12.4861
 30
0.000000
  70
    32
  0
VERTEX
  8
VISIBLE_NARROW__ISO_
  5
B31
 10
-3.18886
 20
12.4820
 30
0.000000
  70
    32
  0
VERTEX
  8
VISIBLE_NARROW__ISO_
  5
B32
 10
-3.18930
 20
12.4779
 30
0.000000
  70
    32
  0
VERTEX
  8
VISIBLE_NARROW__ISO_
  5
B33
 10
-3.18972
 20
12.4739
 30
0.000000
  70
    32
  0
VERTEX
  8
VISIBLE_NARROW__ISO_
  5
B34
 10
-3.19012
 20
12.4698
 30
0.000000
  70
    32
  0
VERTEX
  8
VISIBLE_NARROW__ISO_
  5
B35
 10
-3.19052
 20
12.4657
 30
0.000000
  70
    32
  0
VERTEX
  8
VISIBLE_NARROW__ISO_
  5
B36
 10
-3.19090
 20
12.4616
 30
0.000000
  70
    32
  0
VERTEX
  8
VISIBLE_NARROW__ISO_
  5
B37
 10
-3.19127
 20
12.4575
 30
0.000000
  70
    32
  0
VERTEX
  8
VISIBLE_NARROW__ISO_
  5
B38
 10
-3.19163
 20
12.4534
 30
0.000000
  70
    32
  0
VERTEX
  8
VISIBLE_NARROW__ISO_
  5
B39
 10
-3.19198
 20
12.4494
 30
0.000000
  70
    32
  0
VERTEX
  8
VISIBLE_NARROW__ISO_
  5
B3A
 10
-3.19231
 20
12.4453
 30
0.000000
  70
    32
  0
VERTEX
  8
VISIBLE_NARROW__ISO_
  5
B3B
 10
-3.19263
 20
12.4412
 30
0.000000
  70
    32
  0
VERTEX
  8
VISIBLE_NARROW__ISO_
  5
B3C
 10
-3.19294
 20
12.4371
 30
0.000000
  70
    32
  0
VERTEX
  8
VISIBLE_NARROW__ISO_
  5
B3D
 10
-3.19323
 20
12.4330
 30
0.000000
  70
    32
  0
VERTEX
  8
VISIBLE_NARROW__ISO_
  5
B3E
 10
-3.19351
 20
12.4289
 30
0.000000
  70
    32
  0
VERTEX
  8
VISIBLE_NARROW__ISO_
  5
B3F
 10
-3.19378
 20
12.4248
 30
0.000000
  70
    32
  0
VERTEX
  8
VISIBLE_NARROW__ISO_
  5
B40
 10
-3.19404
 20
12.4207
 30
0.000000
  70
    32
  0
VERTEX
  8
VISIBLE_NARROW__ISO_
  5
B41
 10
-3.19428
 20
12.4166
 30
0.000000
  70
    32
  0
VERTEX
  8
VISIBLE_NARROW__ISO_
  5
B42
 10
-3.19452
 20
12.4125
 30
0.000000
  70
    32
  0
VERTEX
  8
VISIBLE_NARROW__ISO_
  5
B43
 10
-3.19473
 20
12.4085
 30
0.000000
  70
    32
  0
VERTEX
  8
VISIBLE_NARROW__ISO_
  5
B44
 10
-3.19494
 20
12.4044
 30
0.000000
  70
    32
  0
VERTEX
  8
VISIBLE_NARROW__ISO_
  5
B45
 10
-3.19513
 20
12.4003
 30
0.000000
  70
    32
  0
VERTEX
  8
VISIBLE_NARROW__ISO_
  5
B46
 10
-3.19532
 20
12.3962
 30
0.000000
  70
    32
  0
VERTEX
  8
VISIBLE_NARROW__ISO_
  5
B47
 10
-3.19548
 20
12.3921
 30
0.000000
  70
    32
  0
VERTEX
  8
VISIBLE_NARROW__ISO_
  5
B48
 10
-3.19564
 20
12.3880
 30
0.000000
  70
    32
  0
VERTEX
  8
VISIBLE_NARROW__ISO_
  5
B49
 10
-3.19578
 20
12.3839
 30
0.000000
  70
    32
  0
VERTEX
  8
VISIBLE_NARROW__ISO_
  5
B4A
 10
-3.19592
 20
12.3798
 30
0.000000
  70
    32
  0
VERTEX
  8
VISIBLE_NARROW__ISO_
  5
B4B
 10
-3.19603
 20
12.3757
 30
0.000000
  70
    32
  0
VERTEX
  8
VISIBLE_NARROW__ISO_
  5
B4C
 10
-3.19614
 20
12.3716
 30
0.000000
  70
    32
  0
VERTEX
  8
VISIBLE_NARROW__ISO_
  5
B4D
 10
-3.19623
 20
12.3675
 30
0.000000
  70
    32
  0
VERTEX
  8
VISIBLE_NARROW__ISO_
  5
B4E
 10
-3.19631
 20
12.3634
 30
0.000000
  70
    32
  0
VERTEX
  8
VISIBLE_NARROW__ISO_
  5
B4F
 10
-3.19638
 20
12.3593
 30
0.000000
  70
    32
  0
VERTEX
  8
VISIBLE_NARROW__ISO_
  5
B50
 10
-3.19644
 20
12.3552
 30
0.000000
  70
    32
  0
VERTEX
  8
VISIBLE_NARROW__ISO_
  5
B51
 10
-3.19648
 20
12.3511
 30
0.000000
  70
    32
  0
VERTEX
  8
VISIBLE_NARROW__ISO_
  5
B52
 10
-3.19651
 20
12.3470
 30
0.000000
  70
    32
  0
VERTEX
  8
VISIBLE_NARROW__ISO_
  5
B53
 10
-3.19653
 20
12.3429
 30
0.000000
  70
    32
  0
VERTEX
  8
VISIBLE_NARROW__ISO_
  5
B54
 10
-3.19653
 20
12.3388
 30
0.000000
  70
    32
  0
SEQEND
  8
VISIBLE_NARROW__ISO_
  5
B55
  0
LINE
  5
CA
 67
     1
  8
VISIBLE_NARROW__ISO_
 10
-3.1965317442352941
 20
-2.6152295342095382
 30
0.0
 11
-3.1965317442352941
 21
12.3389552197449106
 31
0.0
  0
LINE
  5
CB
 67
     1
  8
VISIBLE_NARROW__ISO_
 10
25.4927943756676498
 20
-3.9487960970085161
 30
0.0
 11
-1.8629651814365431
 21
-3.948796097008402
 31
0.0
  0
POLYLINE
  67
1
  8
VISIBLE_NARROW__ISO_
  5
B56
  66
     1
 10
0.000000
 20
0.000000
 30
0.000000
  70
     8
  0
VERTEX
  8
VISIBLE_NARROW__ISO_
  5
B57
 10
25.4926
 20
-3.94880
 30
0.000000
  70
    32
  0
VERTEX
  8
VISIBLE_NARROW__ISO_
  5
B58
 10
25.4967
 20
-3.94879
 30
0.000000
  70
    32
  0
VERTEX
  8
VISIBLE_NARROW__ISO_
  5
B59
 10
25.5008
 20
-3.94877
 30
0.000000
  70
    32
  0
VERTEX
  8
VISIBLE_NARROW__ISO_
  5
B5A
 10
25.5049
 20
-3.94874
 30
0.000000
  70
    32
  0
VERTEX
  8
VISIBLE_NARROW__ISO_
  5
B5B
 10
25.5090
 20
-3.94870
 30
0.000000
  70
    32
  0
VERTEX
  8
VISIBLE_NARROW__ISO_
  5
B5C
 10
25.5131
 20
-3.94864
 30
0.000000
  70
    32
  0
VERTEX
  8
VISIBLE_NARROW__ISO_
  5
B5D
 10
25.5172
 20
-3.94858
 30
0.000000
  70
    32
  0
VERTEX
  8
VISIBLE_NARROW__ISO_
  5
B5E
 10
25.5213
 20
-3.94850
 30
0.000000
  70
    32
  0
VERTEX
  8
VISIBLE_NARROW__ISO_
  5
B5F
 10
25.5254
 20
-3.94840
 30
0.000000
  70
    32
  0
VERTEX
  8
VISIBLE_NARROW__ISO_
  5
B60
 10
25.5295
 20
-3.94830
 30
0.000000
  70
    32
  0
VERTEX
  8
VISIBLE_NARROW__ISO_
  5
B61
 10
25.5336
 20
-3.94818
 30
0.000000
  70
    32
  0
VERTEX
  8
VISIBLE_NARROW__ISO_
  5
B62
 10
25.5377
 20
-3.94805
 30
0.000000
  70
    32
  0
VERTEX
  8
VISIBLE_NARROW__ISO_
  5
B63
 10
25.5418
 20
-3.94790
 30
0.000000
  70
    32
  0
VERTEX
  8
VISIBLE_NARROW__ISO_
  5
B64
 10
25.5459
 20
-3.94775
 30
0.000000
  70
    32
  0
VERTEX
  8
VISIBLE_NARROW__ISO_
  5
B65
 10
25.5500
 20
-3.94758
 30
0.000000
  70
    32
  0
VERTEX
  8
VISIBLE_NARROW__ISO_
  5
B66
 10
25.5541
 20
-3.94740
 30
0.000000
  70
    32
  0
VERTEX
  8
VISIBLE_NARROW__ISO_
  5
B67
 10
25.5582
 20
-3.94720
 30
0.000000
  70
    32
  0
VERTEX
  8
VISIBLE_NARROW__ISO_
  5
B68
 10
25.5623
 20
-3.94700
 30
0.000000
  70
    32
  0
VERTEX
  8
VISIBLE_NARROW__ISO_
  5
B69
 10
25.5664
 20
-3.94678
 30
0.000000
  70
    32
  0
VERTEX
  8
VISIBLE_NARROW__ISO_
  5
B6A
 10
25.5705
 20
-3.94655
 30
0.000000
  70
    32
  0
VERTEX
  8
VISIBLE_NARROW__ISO_
  5
B6B
 10
25.5746
 20
-3.94630
 30
0.000000
  70
    32
  0
VERTEX
  8
VISIBLE_NARROW__ISO_
  5
B6C
 10
25.5787
 20
-3.94605
 30
0.000000
  70
    32
  0
VERTEX
  8
VISIBLE_NARROW__ISO_
  5
B6D
 10
25.5828
 20
-3.94578
 30
0.000000
  70
    32
  0
VERTEX
  8
VISIBLE_NARROW__ISO_
  5
B6E
 10
25.5868
 20
-3.94550
 30
0.000000
  70
    32
  0
VERTEX
  8
VISIBLE_NARROW__ISO_
  5
B6F
 10
25.5909
 20
-3.94520
 30
0.000000
  70
    32
  0
VERTEX
  8
VISIBLE_NARROW__ISO_
  5
B70
 10
25.5950
 20
-3.94489
 30
0.000000
  70
    32
  0
VERTEX
  8
VISIBLE_NARROW__ISO_
  5
B71
 10
25.5991
 20
-3.94457
 30
0.000000
  70
    32
  0
VERTEX
  8
VISIBLE_NARROW__ISO_
  5
B72
 10
25.6032
 20
-3.94424
 30
0.000000
  70
    32
  0
VERTEX
  8
VISIBLE_NARROW__ISO_
  5
B73
 10
25.6073
 20
-3.94390
 30
0.000000
  70
    32
  0
VERTEX
  8
VISIBLE_NARROW__ISO_
  5
B74
 10
25.6114
 20
-3.94354
 30
0.000000
  70
    32
  0
VERTEX
  8
VISIBLE_NARROW__ISO_
  5
B75
 10
25.6154
 20
-3.94317
 30
0.000000
  70
    32
  0
VERTEX
  8
VISIBLE_NARROW__ISO_
  5
B76
 10
25.6195
 20
-3.94279
 30
0.000000
  70
    32
  0
VERTEX
  8
VISIBLE_NARROW__ISO_
  5
B77
 10
25.6236
 20
-3.94240
 30
0.000000
  70
    32
  0
VERTEX
  8
VISIBLE_NARROW__ISO_
  5
B78
 10
25.6277
 20
-3.94199
 30
0.000000
  70
    32
  0
VERTEX
  8
VISIBLE_NARROW__ISO_
  5
B79
 10
25.6318
 20
-3.94157
 30
0.000000
  70
    32
  0
VERTEX
  8
VISIBLE_NARROW__ISO_
  5
B7A
 10
25.6358
 20
-3.94114
 30
0.000000
  70
    32
  0
VERTEX
  8
VISIBLE_NARROW__ISO_
  5
B7B
 10
25.6399
 20
-3.94069
 30
0.000000
  70
    32
  0
VERTEX
  8
VISIBLE_NARROW__ISO_
  5
B7C
 10
25.6440
 20
-3.94024
 30
0.000000
  70
    32
  0
VERTEX
  8
VISIBLE_NARROW__ISO_
  5
B7D
 10
25.6481
 20
-3.93977
 30
0.000000
  70
    32
  0
VERTEX
  8
VISIBLE_NARROW__ISO_
  5
B7E
 10
25.6521
 20
-3.93928
 30
0.000000
  70
    32
  0
VERTEX
  8
VISIBLE_NARROW__ISO_
  5
B7F
 10
25.6562
 20
-3.93879
 30
0.000000
  70
    32
  0
VERTEX
  8
VISIBLE_NARROW__ISO_
  5
B80
 10
25.6603
 20
-3.93828
 30
0.000000
  70
    32
  0
VERTEX
  8
VISIBLE_NARROW__ISO_
  5
B81
 10
25.6643
 20
-3.93776
 30
0.000000
  70
    32
  0
VERTEX
  8
VISIBLE_NARROW__ISO_
  5
B82
 10
25.6684
 20
-3.93723
 30
0.000000
  70
    32
  0
VERTEX
  8
VISIBLE_NARROW__ISO_
  5
B83
 10
25.6725
 20
-3.93669
 30
0.000000
  70
    32
  0
VERTEX
  8
VISIBLE_NARROW__ISO_
  5
B84
 10
25.6765
 20
-3.93613
 30
0.000000
  70
    32
  0
VERTEX
  8
VISIBLE_NARROW__ISO_
  5
B85
 10
25.6806
 20
-3.93556
 30
0.000000
  70
    32
  0
VERTEX
  8
VISIBLE_NARROW__ISO_
  5
B86
 10
25.6847
 20
-3.93498
 30
0.000000
  70
    32
  0
VERTEX
  8
VISIBLE_NARROW__ISO_
  5
B87
 10
25.6887
 20
-3.93438
 30
0.000000
  70
    32
  0
VERTEX
  8
VISIBLE_NARROW__ISO_
  5
B88
 10
25.6928
 20
-3.93378
 30
0.000000
  70
    32
  0
VERTEX
  8
VISIBLE_NARROW__ISO_
  5
B89
 10
25.6968
 20
-3.93316
 30
0.000000
  70
    32
  0
VERTEX
  8
VISIBLE_NARROW__ISO_
  5
B8A
 10
25.7009
 20
-3.93252
 30
0.000000
  70
    32
  0
VERTEX
  8
VISIBLE_NARROW__ISO_
  5
B8B
 10
25.7049
 20
-3.93188
 30
0.000000
  70
    32
  0
VERTEX
  8
VISIBLE_NARROW__ISO_
  5
B8C
 10
25.7090
 20
-3.93122
 30
0.000000
  70
    32
  0
VERTEX
  8
VISIBLE_NARROW__ISO_
  5
B8D
 10
25.7130
 20
-3.93055
 30
0.000000
  70
    32
  0
VERTEX
  8
VISIBLE_NARROW__ISO_
  5
B8E
 10
25.7171
 20
-3.92987
 30
0.000000
  70
    32
  0
VERTEX
  8
VISIBLE_NARROW__ISO_
  5
B8F
 10
25.7211
 20
-3.92918
 30
0.000000
  70
    32
  0
VERTEX
  8
VISIBLE_NARROW__ISO_
  5
B90
 10
25.7251
 20
-3.92847
 30
0.000000
  70
    32
  0
VERTEX
  8
VISIBLE_NARROW__ISO_
  5
B91
 10
25.7292
 20
-3.92775
 30
0.000000
  70
    32
  0
VERTEX
  8
VISIBLE_NARROW__ISO_
  5
B92
 10
25.7332
 20
-3.92702
 30
0.000000
  70
    32
  0
VERTEX
  8
VISIBLE_NARROW__ISO_
  5
B93
 10
25.7372
 20
-3.92628
 30
0.000000
  70
    32
  0
VERTEX
  8
VISIBLE_NARROW__ISO_
  5
B94
 10
25.7413
 20
-3.92552
 30
0.000000
  70
    32
  0
VERTEX
  8
VISIBLE_NARROW__ISO_
  5
B95
 10
25.7453
 20
-3.92475
 30
0.000000
  70
    32
  0
VERTEX
  8
VISIBLE_NARROW__ISO_
  5
B96
 10
25.7493
 20
-3.92397
 30
0.000000
  70
    32
  0
VERTEX
  8
VISIBLE_NARROW__ISO_
  5
B97
 10
25.7533
 20
-3.92318
 30
0.000000
  70
    32
  0
VERTEX
  8
VISIBLE_NARROW__ISO_
  5
B98
 10
25.7574
 20
-3.92237
 30
0.000000
  70
    32
  0
VERTEX
  8
VISIBLE_NARROW__ISO_
  5
B99
 10
25.7614
 20
-3.92155
 30
0.000000
  70
    32
  0
VERTEX
  8
VISIBLE_NARROW__ISO_
  5
B9A
 10
25.7654
 20
-3.92072
 30
0.000000
  70
    32
  0
VERTEX
  8
VISIBLE_NARROW__ISO_
  5
B9B
 10
25.7694
 20
-3.91988
 30
0.000000
  70
    32
  0
VERTEX
  8
VISIBLE_NARROW__ISO_
  5
B9C
 10
25.7734
 20
-3.91902
 30
0.000000
  70
    32
  0
VERTEX
  8
VISIBLE_NARROW__ISO_
  5
B9D
 10
25.7774
 20
-3.91815
 30
0.000000
  70
    32
  0
VERTEX
  8
VISIBLE_NARROW__ISO_
  5
B9E
 10
25.7814
 20
-3.91727
 30
0.000000
  70
    32
  0
VERTEX
  8
VISIBLE_NARROW__ISO_
  5
B9F
 10
25.7854
 20
-3.91638
 30
0.000000
  70
    32
  0
VERTEX
  8
VISIBLE_NARROW__ISO_
  5
BA0
 10
25.7894
 20
-3.91548
 30
0.000000
  70
    32
  0
VERTEX
  8
VISIBLE_NARROW__ISO_
  5
BA1
 10
25.7934
 20
-3.91456
 30
0.000000
  70
    32
  0
VERTEX
  8
VISIBLE_NARROW__ISO_
  5
BA2
 10
25.7974
 20
-3.91363
 30
0.000000
  70
    32
  0
VERTEX
  8
VISIBLE_NARROW__ISO_
  5
BA3
 10
25.8014
 20
-3.91269
 30
0.000000
  70
    32
  0
VERTEX
  8
VISIBLE_NARROW__ISO_
  5
BA4
 10
25.8054
 20
-3.91173
 30
0.000000
  70
    32
  0
VERTEX
  8
VISIBLE_NARROW__ISO_
  5
BA5
 10
25.8094
 20
-3.91077
 30
0.000000
  70
    32
  0
VERTEX
  8
VISIBLE_NARROW__ISO_
  5
BA6
 10
25.8134
 20
-3.90979
 30
0.000000
  70
    32
  0
VERTEX
  8
VISIBLE_NARROW__ISO_
  5
BA7
 10
25.8173
 20
-3.90880
 30
0.000000
  70
    32
  0
VERTEX
  8
VISIBLE_NARROW__ISO_
  5
BA8
 10
25.8213
 20
-3.90780
 30
0.000000
  70
    32
  0
VERTEX
  8
VISIBLE_NARROW__ISO_
  5
BA9
 10
25.8253
 20
-3.90678
 30
0.000000
  70
    32
  0
VERTEX
  8
VISIBLE_NARROW__ISO_
  5
BAA
 10
25.8293
 20
-3.90576
 30
0.000000
  70
    32
  0
VERTEX
  8
VISIBLE_NARROW__ISO_
  5
BAB
 10
25.8332
 20
-3.90472
 30
0.000000
  70
    32
  0
VERTEX
  8
VISIBLE_NARROW__ISO_
  5
BAC
 10
25.8372
 20
-3.90366
 30
0.000000
  70
    32
  0
VERTEX
  8
VISIBLE_NARROW__ISO_
  5
BAD
 10
25.8412
 20
-3.90260
 30
0.000000
  70
    32
  0
VERTEX
  8
VISIBLE_NARROW__ISO_
  5
BAE
 10
25.8451
 20
-3.90152
 30
0.000000
  70
    32
  0
VERTEX
  8
VISIBLE_NARROW__ISO_
  5
BAF
 10
25.8491
 20
-3.90044
 30
0.000000
  70
    32
  0
VERTEX
  8
VISIBLE_NARROW__ISO_
  5
BB0
 10
25.8530
 20
-3.89934
 30
0.000000
  70
    32
  0
VERTEX
  8
VISIBLE_NARROW__ISO_
  5
BB1
 10
25.8570
 20
-3.89822
 30
0.000000
  70
    32
  0
VERTEX
  8
VISIBLE_NARROW__ISO_
  5
BB2
 10
25.8609
 20
-3.89710
 30
0.000000
  70
    32
  0
VERTEX
  8
VISIBLE_NARROW__ISO_
  5
BB3
 10
25.8648
 20
-3.89596
 30
0.000000
  70
    32
  0
VERTEX
  8
VISIBLE_NARROW__ISO_
  5
BB4
 10
25.8688
 20
-3.89482
 30
0.000000
  70
    32
  0
VERTEX
  8
VISIBLE_NARROW__ISO_
  5
BB5
 10
25.8727
 20
-3.89366
 30
0.000000
  70
    32
  0
VERTEX
  8
VISIBLE_NARROW__ISO_
  5
BB6
 10
25.8766
 20
-3.89248
 30
0.000000
  70
    32
  0
VERTEX
  8
VISIBLE_NARROW__ISO_
  5
BB7
 10
25.8806
 20
-3.89130
 30
0.000000
  70
    32
  0
VERTEX
  8
VISIBLE_NARROW__ISO_
  5
BB8
 10
25.8845
 20
-3.89010
 30
0.000000
  70
    32
  0
VERTEX
  8
VISIBLE_NARROW__ISO_
  5
BB9
 10
25.8884
 20
-3.88889
 30
0.000000
  70
    32
  0
VERTEX
  8
VISIBLE_NARROW__ISO_
  5
BBA
 10
25.8923
 20
-3.88767
 30
0.000000
  70
    32
  0
VERTEX
  8
VISIBLE_NARROW__ISO_
  5
BBB
 10
25.8962
 20
-3.88644
 30
0.000000
  70
    32
  0
VERTEX
  8
VISIBLE_NARROW__ISO_
  5
BBC
 10
25.9001
 20
-3.88520
 30
0.000000
  70
    32
  0
VERTEX
  8
VISIBLE_NARROW__ISO_
  5
BBD
 10
25.9040
 20
-3.88394
 30
0.000000
  70
    32
  0
VERTEX
  8
VISIBLE_NARROW__ISO_
  5
BBE
 10
25.9079
 20
-3.88267
 30
0.000000
  70
    32
  0
VERTEX
  8
VISIBLE_NARROW__ISO_
  5
BBF
 10
25.9118
 20
-3.88139
 30
0.000000
  70
    32
  0
VERTEX
  8
VISIBLE_NARROW__ISO_
  5
BC0
 10
25.9157
 20
-3.88010
 30
0.000000
  70
    32
  0
VERTEX
  8
VISIBLE_NARROW__ISO_
  5
BC1
 10
25.9196
 20
-3.87879
 30
0.000000
  70
    32
  0
VERTEX
  8
VISIBLE_NARROW__ISO_
  5
BC2
 10
25.9235
 20
-3.87748
 30
0.000000
  70
    32
  0
VERTEX
  8
VISIBLE_NARROW__ISO_
  5
BC3
 10
25.9274
 20
-3.87615
 30
0.000000
  70
    32
  0
VERTEX
  8
VISIBLE_NARROW__ISO_
  5
BC4
 10
25.9313
 20
-3.87481
 30
0.000000
  70
    32
  0
VERTEX
  8
VISIBLE_NARROW__ISO_
  5
BC5
 10
25.9351
 20
-3.87346
 30
0.000000
  70
    32
  0
VERTEX
  8
VISIBLE_NARROW__ISO_
  5
BC6
 10
25.9390
 20
-3.87209
 30
0.000000
  70
    32
  0
VERTEX
  8
VISIBLE_NARROW__ISO_
  5
BC7
 10
25.9429
 20
-3.87072
 30
0.000000
  70
    32
  0
VERTEX
  8
VISIBLE_NARROW__ISO_
  5
BC8
 10
25.9467
 20
-3.86933
 30
0.000000
  70
    32
  0
VERTEX
  8
VISIBLE_NARROW__ISO_
  5
BC9
 10
25.9506
 20
-3.86793
 30
0.000000
  70
    32
  0
VERTEX
  8
VISIBLE_NARROW__ISO_
  5
BCA
 10
25.9544
 20
-3.86652
 30
0.000000
  70
    32
  0
VERTEX
  8
VISIBLE_NARROW__ISO_
  5
BCB
 10
25.9583
 20
-3.86510
 30
0.000000
  70
    32
  0
VERTEX
  8
VISIBLE_NARROW__ISO_
  5
BCC
 10
25.9621
 20
-3.86366
 30
0.000000
  70
    32
  0
VERTEX
  8
VISIBLE_NARROW__ISO_
  5
BCD
 10
25.9659
 20
-3.86222
 30
0.000000
  70
    32
  0
VERTEX
  8
VISIBLE_NARROW__ISO_
  5
BCE
 10
25.9698
 20
-3.86076
 30
0.000000
  70
    32
  0
VERTEX
  8
VISIBLE_NARROW__ISO_
  5
BCF
 10
25.9736
 20
-3.85929
 30
0.000000
  70
    32
  0
VERTEX
  8
VISIBLE_NARROW__ISO_
  5
BD0
 10
25.9774
 20
-3.85781
 30
0.000000
  70
    32
  0
VERTEX
  8
VISIBLE_NARROW__ISO_
  5
BD1
 10
25.9812
 20
-3.85631
 30
0.000000
  70
    32
  0
VERTEX
  8
VISIBLE_NARROW__ISO_
  5
BD2
 10
25.9851
 20
-3.85481
 30
0.000000
  70
    32
  0
VERTEX
  8
VISIBLE_NARROW__ISO_
  5
BD3
 10
25.9889
 20
-3.85329
 30
0.000000
  70
    32
  0
VERTEX
  8
VISIBLE_NARROW__ISO_
  5
BD4
 10
25.9927
 20
-3.85176
 30
0.000000
  70
    32
  0
VERTEX
  8
VISIBLE_NARROW__ISO_
  5
BD5
 10
25.9965
 20
-3.85022
 30
0.000000
  70
    32
  0
VERTEX
  8
VISIBLE_NARROW__ISO_
  5
BD6
 10
26.0003
 20
-3.84867
 30
0.000000
  70
    32
  0
VERTEX
  8
VISIBLE_NARROW__ISO_
  5
BD7
 10
26.0041
 20
-3.84711
 30
0.000000
  70
    32
  0
VERTEX
  8
VISIBLE_NARROW__ISO_
  5
BD8
 10
26.0078
 20
-3.84553
 30
0.000000
  70
    32
  0
VERTEX
  8
VISIBLE_NARROW__ISO_
  5
BD9
 10
26.0116
 20
-3.84394
 30
0.000000
  70
    32
  0
VERTEX
  8
VISIBLE_NARROW__ISO_
  5
BDA
 10
26.0154
 20
-3.84234
 30
0.000000
  70
    32
  0
VERTEX
  8
VISIBLE_NARROW__ISO_
  5
BDB
 10
26.0192
 20
-3.84073
 30
0.000000
  70
    32
  0
VERTEX
  8
VISIBLE_NARROW__ISO_
  5
BDC
 10
26.0229
 20
-3.83911
 30
0.000000
  70
    32
  0
VERTEX
  8
VISIBLE_NARROW__ISO_
  5
BDD
 10
26.0267
 20
-3.83748
 30
0.000000
  70
    32
  0
VERTEX
  8
VISIBLE_NARROW__ISO_
  5
BDE
 10
26.0305
 20
-3.83583
 30
0.000000
  70
    32
  0
VERTEX
  8
VISIBLE_NARROW__ISO_
  5
BDF
 10
26.0342
 20
-3.83418
 30
0.000000
  70
    32
  0
VERTEX
  8
VISIBLE_NARROW__ISO_
  5
BE0
 10
26.0380
 20
-3.83251
 30
0.000000
  70
    32
  0
VERTEX
  8
VISIBLE_NARROW__ISO_
  5
BE1
 10
26.0417
 20
-3.83083
 30
0.000000
  70
    32
  0
VERTEX
  8
VISIBLE_NARROW__ISO_
  5
BE2
 10
26.0454
 20
-3.82914
 30
0.000000
  70
    32
  0
VERTEX
  8
VISIBLE_NARROW__ISO_
  5
BE3
 10
26.0492
 20
-3.82743
 30
0.000000
  70
    32
  0
VERTEX
  8
VISIBLE_NARROW__ISO_
  5
BE4
 10
26.0529
 20
-3.82572
 30
0.000000
  70
    32
  0
VERTEX
  8
VISIBLE_NARROW__ISO_
  5
BE5
 10
26.0566
 20
-3.82399
 30
0.000000
  70
    32
  0
VERTEX
  8
VISIBLE_NARROW__ISO_
  5
BE6
 10
26.0603
 20
-3.82225
 30
0.000000
  70
    32
  0
VERTEX
  8
VISIBLE_NARROW__ISO_
  5
BE7
 10
26.0640
 20
-3.82050
 30
0.000000
  70
    32
  0
VERTEX
  8
VISIBLE_NARROW__ISO_
  5
BE8
 10
26.0677
 20
-3.81874
 30
0.000000
  70
    32
  0
VERTEX
  8
VISIBLE_NARROW__ISO_
  5
BE9
 10
26.0714
 20
-3.81697
 30
0.000000
  70
    32
  0
VERTEX
  8
VISIBLE_NARROW__ISO_
  5
BEA
 10
26.0751
 20
-3.81519
 30
0.000000
  70
    32
  0
VERTEX
  8
VISIBLE_NARROW__ISO_
  5
BEB
 10
26.0788
 20
-3.81339
 30
0.000000
  70
    32
  0
VERTEX
  8
VISIBLE_NARROW__ISO_
  5
BEC
 10
26.0825
 20
-3.81159
 30
0.000000
  70
    32
  0
VERTEX
  8
VISIBLE_NARROW__ISO_
  5
BED
 10
26.0862
 20
-3.80977
 30
0.000000
  70
    32
  0
VERTEX
  8
VISIBLE_NARROW__ISO_
  5
BEE
 10
26.0898
 20
-3.80794
 30
0.000000
  70
    32
  0
VERTEX
  8
VISIBLE_NARROW__ISO_
  5
BEF
 10
26.0935
 20
-3.80610
 30
0.000000
  70
    32
  0
VERTEX
  8
VISIBLE_NARROW__ISO_
  5
BF0
 10
26.0972
 20
-3.80425
 30
0.000000
  70
    32
  0
VERTEX
  8
VISIBLE_NARROW__ISO_
  5
BF1
 10
26.1008
 20
-3.80239
 30
0.000000
  70
    32
  0
VERTEX
  8
VISIBLE_NARROW__ISO_
  5
BF2
 10
26.1045
 20
-3.80051
 30
0.000000
  70
    32
  0
VERTEX
  8
VISIBLE_NARROW__ISO_
  5
BF3
 10
26.1081
 20
-3.79863
 30
0.000000
  70
    32
  0
VERTEX
  8
VISIBLE_NARROW__ISO_
  5
BF4
 10
26.1117
 20
-3.79673
 30
0.000000
  70
    32
  0
VERTEX
  8
VISIBLE_NARROW__ISO_
  5
BF5
 10
26.1154
 20
-3.79482
 30
0.000000
  70
    32
  0
VERTEX
  8
VISIBLE_NARROW__ISO_
  5
BF6
 10
26.1190
 20
-3.79290
 30
0.000000
  70
    32
  0
VERTEX
  8
VISIBLE_NARROW__ISO_
  5
BF7
 10
26.1226
 20
-3.79097
 30
0.000000
  70
    32
  0
VERTEX
  8
VISIBLE_NARROW__ISO_
  5
BF8
 10
26.1262
 20
-3.78903
 30
0.000000
  70
    32
  0
VERTEX
  8
VISIBLE_NARROW__ISO_
  5
BF9
 10
26.1298
 20
-3.78708
 30
0.000000
  70
    32
  0
VERTEX
  8
VISIBLE_NARROW__ISO_
  5
BFA
 10
26.1334
 20
-3.78512
 30
0.000000
  70
    32
  0
VERTEX
  8
VISIBLE_NARROW__ISO_
  5
BFB
 10
26.1370
 20
-3.78314
 30
0.000000
  70
    32
  0
VERTEX
  8
VISIBLE_NARROW__ISO_
  5
BFC
 10
26.1406
 20
-3.78116
 30
0.000000
  70
    32
  0
VERTEX
  8
VISIBLE_NARROW__ISO_
  5
BFD
 10
26.1442
 20
-3.77916
 30
0.000000
  70
    32
  0
VERTEX
  8
VISIBLE_NARROW__ISO_
  5
BFE
 10
26.1478
 20
-3.77715
 30
0.000000
  70
    32
  0
VERTEX
  8
VISIBLE_NARROW__ISO_
  5
BFF
 10
26.1513
 20
-3.77513
 30
0.000000
  70
    32
  0
VERTEX
  8
VISIBLE_NARROW__ISO_
  5
C00
 10
26.1549
 20
-3.77310
 30
0.000000
  70
    32
  0
VERTEX
  8
VISIBLE_NARROW__ISO_
  5
C01
 10
26.1585
 20
-3.77106
 30
0.000000
  70
    32
  0
VERTEX
  8
VISIBLE_NARROW__ISO_
  5
C02
 10
26.1620
 20
-3.76901
 30
0.000000
  70
    32
  0
VERTEX
  8
VISIBLE_NARROW__ISO_
  5
C03
 10
26.1656
 20
-3.76695
 30
0.000000
  70
    32
  0
VERTEX
  8
VISIBLE_NARROW__ISO_
  5
C04
 10
26.1691
 20
-3.76488
 30
0.000000
  70
    32
  0
VERTEX
  8
VISIBLE_NARROW__ISO_
  5
C05
 10
26.1726
 20
-3.76279
 30
0.000000
  70
    32
  0
VERTEX
  8
VISIBLE_NARROW__ISO_
  5
C06
 10
26.1762
 20
-3.76070
 30
0.000000
  70
    32
  0
VERTEX
  8
VISIBLE_NARROW__ISO_
  5
C07
 10
26.1797
 20
-3.75859
 30
0.000000
  70
    32
  0
VERTEX
  8
VISIBLE_NARROW__ISO_
  5
C08
 10
26.1832
 20
-3.75647
 30
0.000000
  70
    32
  0
VERTEX
  8
VISIBLE_NARROW__ISO_
  5
C09
 10
26.1867
 20
-3.75435
 30
0.000000
  70
    32
  0
VERTEX
  8
VISIBLE_NARROW__ISO_
  5
C0A
 10
26.1902
 20
-3.75221
 30
0.000000
  70
    32
  0
VERTEX
  8
VISIBLE_NARROW__ISO_
  5
C0B
 10
26.1937
 20
-3.75006
 30
0.000000
  70
    32
  0
VERTEX
  8
VISIBLE_NARROW__ISO_
  5
C0C
 10
26.1972
 20
-3.74790
 30
0.000000
  70
    32
  0
VERTEX
  8
VISIBLE_NARROW__ISO_
  5
C0D
 10
26.2006
 20
-3.74573
 30
0.000000
  70
    32
  0
VERTEX
  8
VISIBLE_NARROW__ISO_
  5
C0E
 10
26.2041
 20
-3.74355
 30
0.000000
  70
    32
  0
VERTEX
  8
VISIBLE_NARROW__ISO_
  5
C0F
 10
26.2076
 20
-3.74136
 30
0.000000
  70
    32
  0
VERTEX
  8
VISIBLE_NARROW__ISO_
  5
C10
 10
26.2110
 20
-3.73916
 30
0.000000
  70
    32
  0
VERTEX
  8
VISIBLE_NARROW__ISO_
  5
C11
 10
26.2145
 20
-3.73694
 30
0.000000
  70
    32
  0
VERTEX
  8
VISIBLE_NARROW__ISO_
  5
C12
 10
26.2179
 20
-3.73472
 30
0.000000
  70
    32
  0
VERTEX
  8
VISIBLE_NARROW__ISO_
  5
C13
 10
26.2214
 20
-3.73249
 30
0.000000
  70
    32
  0
VERTEX
  8
VISIBLE_NARROW__ISO_
  5
C14
 10
26.2248
 20
-3.73024
 30
0.000000
  70
    32
  0
VERTEX
  8
VISIBLE_NARROW__ISO_
  5
C15
 10
26.2282
 20
-3.72799
 30
0.000000
  70
    32
  0
VERTEX
  8
VISIBLE_NARROW__ISO_
  5
C16
 10
26.2317
 20
-3.72572
 30
0.000000
  70
    32
  0
VERTEX
  8
VISIBLE_NARROW__ISO_
  5
C17
 10
26.2351
 20
-3.72345
 30
0.000000
  70
    32
  0
VERTEX
  8
VISIBLE_NARROW__ISO_
  5
C18
 10
26.2385
 20
-3.72116
 30
0.000000
  70
    32
  0
VERTEX
  8
VISIBLE_NARROW__ISO_
  5
C19
 10
26.2419
 20
-3.71886
 30
0.000000
  70
    32
  0
VERTEX
  8
VISIBLE_NARROW__ISO_
  5
C1A
 10
26.2453
 20
-3.71656
 30
0.000000
  70
    32
  0
VERTEX
  8
VISIBLE_NARROW__ISO_
  5
C1B
 10
26.2486
 20
-3.71424
 30
0.000000
  70
    32
  0
VERTEX
  8
VISIBLE_NARROW__ISO_
  5
C1C
 10
26.2520
 20
-3.71191
 30
0.000000
  70
    32
  0
VERTEX
  8
VISIBLE_NARROW__ISO_
  5
C1D
 10
26.2554
 20
-3.70957
 30
0.000000
  70
    32
  0
VERTEX
  8
VISIBLE_NARROW__ISO_
  5
C1E
 10
26.2588
 20
-3.70722
 30
0.000000
  70
    32
  0
VERTEX
  8
VISIBLE_NARROW__ISO_
  5
C1F
 10
26.2621
 20
-3.70486
 30
0.000000
  70
    32
  0
VERTEX
  8
VISIBLE_NARROW__ISO_
  5
C20
 10
26.2655
 20
-3.70249
 30
0.000000
  70
    32
  0
VERTEX
  8
VISIBLE_NARROW__ISO_
  5
C21
 10
26.2688
 20
-3.70012
 30
0.000000
  70
    32
  0
VERTEX
  8
VISIBLE_NARROW__ISO_
  5
C22
 10
26.2721
 20
-3.69773
 30
0.000000
  70
    32
  0
VERTEX
  8
VISIBLE_NARROW__ISO_
  5
C23
 10
26.2755
 20
-3.69533
 30
0.000000
  70
    32
  0
VERTEX
  8
VISIBLE_NARROW__ISO_
  5
C24
 10
26.2788
 20
-3.69291
 30
0.000000
  70
    32
  0
VERTEX
  8
VISIBLE_NARROW__ISO_
  5
C25
 10
26.2821
 20
-3.69049
 30
0.000000
  70
    32
  0
VERTEX
  8
VISIBLE_NARROW__ISO_
  5
C26
 10
26.2854
 20
-3.68806
 30
0.000000
  70
    32
  0
VERTEX
  8
VISIBLE_NARROW__ISO_
  5
C27
 10
26.2887
 20
-3.68562
 30
0.000000
  70
    32
  0
VERTEX
  8
VISIBLE_NARROW__ISO_
  5
C28
 10
26.2920
 20
-3.68317
 30
0.000000
  70
    32
  0
VERTEX
  8
VISIBLE_NARROW__ISO_
  5
C29
 10
26.2952
 20
-3.68071
 30
0.000000
  70
    32
  0
VERTEX
  8
VISIBLE_NARROW__ISO_
  5
C2A
 10
26.2985
 20
-3.67824
 30
0.000000
  70
    32
  0
VERTEX
  8
VISIBLE_NARROW__ISO_
  5
C2B
 10
26.3018
 20
-3.67576
 30
0.000000
  70
    32
  0
VERTEX
  8
VISIBLE_NARROW__ISO_
  5
C2C
 10
26.3050
 20
-3.67327
 30
0.000000
  70
    32
  0
VERTEX
  8
VISIBLE_NARROW__ISO_
  5
C2D
 10
26.3083
 20
-3.67077
 30
0.000000
  70
    32
  0
VERTEX
  8
VISIBLE_NARROW__ISO_
  5
C2E
 10
26.3115
 20
-3.66826
 30
0.000000
  70
    32
  0
VERTEX
  8
VISIBLE_NARROW__ISO_
  5
C2F
 10
26.3148
 20
-3.66573
 30
0.000000
  70
    32
  0
VERTEX
  8
VISIBLE_NARROW__ISO_
  5
C30
 10
26.3180
 20
-3.66320
 30
0.000000
  70
    32
  0
VERTEX
  8
VISIBLE_NARROW__ISO_
  5
C31
 10
26.3212
 20
-3.66066
 30
0.000000
  70
    32
  0
VERTEX
  8
VISIBLE_NARROW__ISO_
  5
C32
 10
26.3244
 20
-3.65811
 30
0.000000
  70
    32
  0
VERTEX
  8
VISIBLE_NARROW__ISO_
  5
C33
 10
26.3276
 20
-3.65555
 30
0.000000
  70
    32
  0
VERTEX
  8
VISIBLE_NARROW__ISO_
  5
C34
 10
26.3308
 20
-3.65298
 30
0.000000
  70
    32
  0
VERTEX
  8
VISIBLE_NARROW__ISO_
  5
C35
 10
26.3340
 20
-3.65040
 30
0.000000
  70
    32
  0
VERTEX
  8
VISIBLE_NARROW__ISO_
  5
C36
 10
26.3372
 20
-3.64781
 30
0.000000
  70
    32
  0
VERTEX
  8
VISIBLE_NARROW__ISO_
  5
C37
 10
26.3404
 20
-3.64521
 30
0.000000
  70
    32
  0
VERTEX
  8
VISIBLE_NARROW__ISO_
  5
C38
 10
26.3435
 20
-3.64260
 30
0.000000
  70
    32
  0
VERTEX
  8
VISIBLE_NARROW__ISO_
  5
C39
 10
26.3467
 20
-3.63998
 30
0.000000
  70
    32
  0
VERTEX
  8
VISIBLE_NARROW__ISO_
  5
C3A
 10
26.3498
 20
-3.63735
 30
0.000000
  70
    32
  0
VERTEX
  8
VISIBLE_NARROW__ISO_
  5
C3B
 10
26.3530
 20
-3.63471
 30
0.000000
  70
    32
  0
VERTEX
  8
VISIBLE_NARROW__ISO_
  5
C3C
 10
26.3561
 20
-3.63206
 30
0.000000
  70
    32
  0
VERTEX
  8
VISIBLE_NARROW__ISO_
  5
C3D
 10
26.3592
 20
-3.62940
 30
0.000000
  70
    32
  0
VERTEX
  8
VISIBLE_NARROW__ISO_
  5
C3E
 10
26.3623
 20
-3.62673
 30
0.000000
  70
    32
  0
VERTEX
  8
VISIBLE_NARROW__ISO_
  5
C3F
 10
26.3654
 20
-3.62406
 30
0.000000
  70
    32
  0
VERTEX
  8
VISIBLE_NARROW__ISO_
  5
C40
 10
26.3685
 20
-3.62137
 30
0.000000
  70
    32
  0
VERTEX
  8
VISIBLE_NARROW__ISO_
  5
C41
 10
26.3716
 20
-3.61867
 30
0.000000
  70
    32
  0
VERTEX
  8
VISIBLE_NARROW__ISO_
  5
C42
 10
26.3747
 20
-3.61597
 30
0.000000
  70
    32
  0
VERTEX
  8
VISIBLE_NARROW__ISO_
  5
C43
 10
26.3778
 20
-3.61325
 30
0.000000
  70
    32
  0
VERTEX
  8
VISIBLE_NARROW__ISO_
  5
C44
 10
26.3808
 20
-3.61052
 30
0.000000
  70
    32
  0
VERTEX
  8
VISIBLE_NARROW__ISO_
  5
C45
 10
26.3839
 20
-3.60779
 30
0.000000
  70
    32
  0
VERTEX
  8
VISIBLE_NARROW__ISO_
  5
C46
 10
26.3870
 20
-3.60504
 30
0.000000
  70
    32
  0
VERTEX
  8
VISIBLE_NARROW__ISO_
  5
C47
 10
26.3900
 20
-3.60229
 30
0.000000
  70
    32
  0
VERTEX
  8
VISIBLE_NARROW__ISO_
  5
C48
 10
26.3930
 20
-3.59953
 30
0.000000
  70
    32
  0
VERTEX
  8
VISIBLE_NARROW__ISO_
  5
C49
 10
26.3960
 20
-3.59675
 30
0.000000
  70
    32
  0
VERTEX
  8
VISIBLE_NARROW__ISO_
  5
C4A
 10
26.3991
 20
-3.59397
 30
0.000000
  70
    32
  0
VERTEX
  8
VISIBLE_NARROW__ISO_
  5
C4B
 10
26.4021
 20
-3.59118
 30
0.000000
  70
    32
  0
VERTEX
  8
VISIBLE_NARROW__ISO_
  5
C4C
 10
26.4051
 20
-3.58838
 30
0.000000
  70
    32
  0
VERTEX
  8
VISIBLE_NARROW__ISO_
  5
C4D
 10
26.4080
 20
-3.58557
 30
0.000000
  70
    32
  0
VERTEX
  8
VISIBLE_NARROW__ISO_
  5
C4E
 10
26.4110
 20
-3.58275
 30
0.000000
  70
    32
  0
VERTEX
  8
VISIBLE_NARROW__ISO_
  5
C4F
 10
26.4140
 20
-3.57992
 30
0.000000
  70
    32
  0
VERTEX
  8
VISIBLE_NARROW__ISO_
  5
C50
 10
26.4170
 20
-3.57709
 30
0.000000
  70
    32
  0
VERTEX
  8
VISIBLE_NARROW__ISO_
  5
C51
 10
26.4199
 20
-3.57424
 30
0.000000
  70
    32
  0
VERTEX
  8
VISIBLE_NARROW__ISO_
  5
C52
 10
26.4229
 20
-3.57138
 30
0.000000
  70
    32
  0
VERTEX
  8
VISIBLE_NARROW__ISO_
  5
C53
 10
26.4258
 20
-3.56852
 30
0.000000
  70
    32
  0
VERTEX
  8
VISIBLE_NARROW__ISO_
  5
C54
 10
26.4287
 20
-3.56565
 30
0.000000
  70
    32
  0
VERTEX
  8
VISIBLE_NARROW__ISO_
  5
C55
 10
26.4316
 20
-3.56276
 30
0.000000
  70
    32
  0
VERTEX
  8
VISIBLE_NARROW__ISO_
  5
C56
 10
26.4345
 20
-3.55987
 30
0.000000
  70
    32
  0
VERTEX
  8
VISIBLE_NARROW__ISO_
  5
C57
 10
26.4374
 20
-3.55697
 30
0.000000
  70
    32
  0
VERTEX
  8
VISIBLE_NARROW__ISO_
  5
C58
 10
26.4403
 20
-3.55406
 30
0.000000
  70
    32
  0
VERTEX
  8
VISIBLE_NARROW__ISO_
  5
C59
 10
26.4432
 20
-3.55114
 30
0.000000
  70
    32
  0
VERTEX
  8
VISIBLE_NARROW__ISO_
  5
C5A
 10
26.4461
 20
-3.54822
 30
0.000000
  70
    32
  0
VERTEX
  8
VISIBLE_NARROW__ISO_
  5
C5B
 10
26.4489
 20
-3.54528
 30
0.000000
  70
    32
  0
VERTEX
  8
VISIBLE_NARROW__ISO_
  5
C5C
 10
26.4518
 20
-3.54234
 30
0.000000
  70
    32
  0
VERTEX
  8
VISIBLE_NARROW__ISO_
  5
C5D
 10
26.4546
 20
-3.53938
 30
0.000000
  70
    32
  0
VERTEX
  8
VISIBLE_NARROW__ISO_
  5
C5E
 10
26.4575
 20
-3.53642
 30
0.000000
  70
    32
  0
VERTEX
  8
VISIBLE_NARROW__ISO_
  5
C5F
 10
26.4603
 20
-3.53345
 30
0.000000
  70
    32
  0
VERTEX
  8
VISIBLE_NARROW__ISO_
  5
C60
 10
26.4631
 20
-3.53047
 30
0.000000
  70
    32
  0
VERTEX
  8
VISIBLE_NARROW__ISO_
  5
C61
 10
26.4659
 20
-3.52748
 30
0.000000
  70
    32
  0
VERTEX
  8
VISIBLE_NARROW__ISO_
  5
C62
 10
26.4687
 20
-3.52449
 30
0.000000
  70
    32
  0
VERTEX
  8
VISIBLE_NARROW__ISO_
  5
C63
 10
26.4715
 20
-3.52148
 30
0.000000
  70
    32
  0
VERTEX
  8
VISIBLE_NARROW__ISO_
  5
C64
 10
26.4743
 20
-3.51847
 30
0.000000
  70
    32
  0
VERTEX
  8
VISIBLE_NARROW__ISO_
  5
C65
 10
26.4771
 20
-3.51545
 30
0.000000
  70
    32
  0
VERTEX
  8
VISIBLE_NARROW__ISO_
  5
C66
 10
26.4798
 20
-3.51241
 30
0.000000
  70
    32
  0
VERTEX
  8
VISIBLE_NARROW__ISO_
  5
C67
 10
26.4826
 20
-3.50938
 30
0.000000
  70
    32
  0
VERTEX
  8
VISIBLE_NARROW__ISO_
  5
C68
 10
26.4853
 20
-3.50633
 30
0.000000
  70
    32
  0
VERTEX
  8
VISIBLE_NARROW__ISO_
  5
C69
 10
26.4881
 20
-3.50327
 30
0.000000
  70
    32
  0
VERTEX
  8
VISIBLE_NARROW__ISO_
  5
C6A
 10
26.4908
 20
-3.50021
 30
0.000000
  70
    32
  0
VERTEX
  8
VISIBLE_NARROW__ISO_
  5
C6B
 10
26.4935
 20
-3.49713
 30
0.000000
  70
    32
  0
VERTEX
  8
VISIBLE_NARROW__ISO_
  5
C6C
 10
26.4962
 20
-3.49405
 30
0.000000
  70
    32
  0
VERTEX
  8
VISIBLE_NARROW__ISO_
  5
C6D
 10
26.4989
 20
-3.49096
 30
0.000000
  70
    32
  0
VERTEX
  8
VISIBLE_NARROW__ISO_
  5
C6E
 10
26.5016
 20
-3.48787
 30
0.000000
  70
    32
  0
VERTEX
  8
VISIBLE_NARROW__ISO_
  5
C6F
 10
26.5043
 20
-3.48476
 30
0.000000
  70
    32
  0
VERTEX
  8
VISIBLE_NARROW__ISO_
  5
C70
 10
26.5070
 20
-3.48165
 30
0.000000
  70
    32
  0
VERTEX
  8
VISIBLE_NARROW__ISO_
  5
C71
 10
26.5096
 20
-3.47852
 30
0.000000
  70
    32
  0
VERTEX
  8
VISIBLE_NARROW__ISO_
  5
C72
 10
26.5123
 20
-3.47539
 30
0.000000
  70
    32
  0
VERTEX
  8
VISIBLE_NARROW__ISO_
  5
C73
 10
26.5149
 20
-3.47225
 30
0.000000
  70
    32
  0
VERTEX
  8
VISIBLE_NARROW__ISO_
  5
C74
 10
26.5175
 20
-3.46911
 30
0.000000
  70
    32
  0
VERTEX
  8
VISIBLE_NARROW__ISO_
  5
C75
 10
26.5202
 20
-3.46595
 30
0.000000
  70
    32
  0
VERTEX
  8
VISIBLE_NARROW__ISO_
  5
C76
 10
26.5228
 20
-3.46279
 30
0.000000
  70
    32
  0
VERTEX
  8
VISIBLE_NARROW__ISO_
  5
C77
 10
26.5254
 20
-3.45962
 30
0.000000
  70
    32
  0
VERTEX
  8
VISIBLE_NARROW__ISO_
  5
C78
 10
26.5280
 20
-3.45644
 30
0.000000
  70
    32
  0
VERTEX
  8
VISIBLE_NARROW__ISO_
  5
C79
 10
26.5305
 20
-3.45325
 30
0.000000
  70
    32
  0
VERTEX
  8
VISIBLE_NARROW__ISO_
  5
C7A
 10
26.5331
 20
-3.45006
 30
0.000000
  70
    32
  0
VERTEX
  8
VISIBLE_NARROW__ISO_
  5
C7B
 10
26.5357
 20
-3.44686
 30
0.000000
  70
    32
  0
VERTEX
  8
VISIBLE_NARROW__ISO_
  5
C7C
 10
26.5382
 20
-3.44365
 30
0.000000
  70
    32
  0
VERTEX
  8
VISIBLE_NARROW__ISO_
  5
C7D
 10
26.5408
 20
-3.44043
 30
0.000000
  70
    32
  0
VERTEX
  8
VISIBLE_NARROW__ISO_
  5
C7E
 10
26.5433
 20
-3.43720
 30
0.000000
  70
    32
  0
VERTEX
  8
VISIBLE_NARROW__ISO_
  5
C7F
 10
26.5458
 20
-3.43397
 30
0.000000
  70
    32
  0
VERTEX
  8
VISIBLE_NARROW__ISO_
  5
C80
 10
26.5483
 20
-3.43073
 30
0.000000
  70
    32
  0
VERTEX
  8
VISIBLE_NARROW__ISO_
  5
C81
 10
26.5508
 20
-3.42748
 30
0.000000
  70
    32
  0
VERTEX
  8
VISIBLE_NARROW__ISO_
  5
C82
 10
26.5533
 20
-3.42422
 30
0.000000
  70
    32
  0
VERTEX
  8
VISIBLE_NARROW__ISO_
  5
C83
 10
26.5558
 20
-3.42096
 30
0.000000
  70
    32
  0
VERTEX
  8
VISIBLE_NARROW__ISO_
  5
C84
 10
26.5583
 20
-3.41768
 30
0.000000
  70
    32
  0
VERTEX
  8
VISIBLE_NARROW__ISO_
  5
C85
 10
26.5607
 20
-3.41440
 30
0.000000
  70
    32
  0
VERTEX
  8
VISIBLE_NARROW__ISO_
  5
C86
 10
26.5632
 20
-3.41112
 30
0.000000
  70
    32
  0
VERTEX
  8
VISIBLE_NARROW__ISO_
  5
C87
 10
26.5656
 20
-3.40782
 30
0.000000
  70
    32
  0
VERTEX
  8
VISIBLE_NARROW__ISO_
  5
C88
 10
26.5681
 20
-3.40452
 30
0.000000
  70
    32
  0
VERTEX
  8
VISIBLE_NARROW__ISO_
  5
C89
 10
26.5705
 20
-3.40121
 30
0.000000
  70
    32
  0
VERTEX
  8
VISIBLE_NARROW__ISO_
  5
C8A
 10
26.5729
 20
-3.39789
 30
0.000000
  70
    32
  0
VERTEX
  8
VISIBLE_NARROW__ISO_
  5
C8B
 10
26.5753
 20
-3.39457
 30
0.000000
  70
    32
  0
VERTEX
  8
VISIBLE_NARROW__ISO_
  5
C8C
 10
26.5777
 20
-3.39124
 30
0.000000
  70
    32
  0
VERTEX
  8
VISIBLE_NARROW__ISO_
  5
C8D
 10
26.5801
 20
-3.38790
 30
0.000000
  70
    32
  0
VERTEX
  8
VISIBLE_NARROW__ISO_
  5
C8E
 10
26.5824
 20
-3.38455
 30
0.000000
  70
    32
  0
VERTEX
  8
VISIBLE_NARROW__ISO_
  5
C8F
 10
26.5848
 20
-3.38120
 30
0.000000
  70
    32
  0
VERTEX
  8
VISIBLE_NARROW__ISO_
  5
C90
 10
26.5871
 20
-3.37784
 30
0.000000
  70
    32
  0
VERTEX
  8
VISIBLE_NARROW__ISO_
  5
C91
 10
26.5895
 20
-3.37447
 30
0.000000
  70
    32
  0
VERTEX
  8
VISIBLE_NARROW__ISO_
  5
C92
 10
26.5918
 20
-3.37109
 30
0.000000
  70
    32
  0
VERTEX
  8
VISIBLE_NARROW__ISO_
  5
C93
 10
26.5941
 20
-3.36771
 30
0.000000
  70
    32
  0
VERTEX
  8
VISIBLE_NARROW__ISO_
  5
C94
 10
26.5964
 20
-3.36432
 30
0.000000
  70
    32
  0
VERTEX
  8
VISIBLE_NARROW__ISO_
  5
C95
 10
26.5987
 20
-3.36092
 30
0.000000
  70
    32
  0
VERTEX
  8
VISIBLE_NARROW__ISO_
  5
C96
 10
26.6010
 20
-3.35752
 30
0.000000
  70
    32
  0
VERTEX
  8
VISIBLE_NARROW__ISO_
  5
C97
 10
26.6033
 20
-3.35410
 30
0.000000
  70
    32
  0
VERTEX
  8
VISIBLE_NARROW__ISO_
  5
C98
 10
26.6056
 20
-3.35069
 30
0.000000
  70
    32
  0
VERTEX
  8
VISIBLE_NARROW__ISO_
  5
C99
 10
26.6078
 20
-3.34726
 30
0.000000
  70
    32
  0
VERTEX
  8
VISIBLE_NARROW__ISO_
  5
C9A
 10
26.6101
 20
-3.34383
 30
0.000000
  70
    32
  0
VERTEX
  8
VISIBLE_NARROW__ISO_
  5
C9B
 10
26.6123
 20
-3.34039
 30
0.000000
  70
    32
  0
VERTEX
  8
VISIBLE_NARROW__ISO_
  5
C9C
 10
26.6145
 20
-3.33694
 30
0.000000
  70
    32
  0
VERTEX
  8
VISIBLE_NARROW__ISO_
  5
C9D
 10
26.6167
 20
-3.33349
 30
0.000000
  70
    32
  0
VERTEX
  8
VISIBLE_NARROW__ISO_
  5
C9E
 10
26.6189
 20
-3.33003
 30
0.000000
  70
    32
  0
VERTEX
  8
VISIBLE_NARROW__ISO_
  5
C9F
 10
26.6211
 20
-3.32656
 30
0.000000
  70
    32
  0
VERTEX
  8
VISIBLE_NARROW__ISO_
  5
CA0
 10
26.6233
 20
-3.32309
 30
0.000000
  70
    32
  0
VERTEX
  8
VISIBLE_NARROW__ISO_
  5
CA1
 10
26.6255
 20
-3.31961
 30
0.000000
  70
    32
  0
VERTEX
  8
VISIBLE_NARROW__ISO_
  5
CA2
 10
26.6276
 20
-3.31612
 30
0.000000
  70
    32
  0
VERTEX
  8
VISIBLE_NARROW__ISO_
  5
CA3
 10
26.6298
 20
-3.31263
 30
0.000000
  70
    32
  0
VERTEX
  8
VISIBLE_NARROW__ISO_
  5
CA4
 10
26.6319
 20
-3.30913
 30
0.000000
  70
    32
  0
VERTEX
  8
VISIBLE_NARROW__ISO_
  5
CA5
 10
26.6340
 20
-3.30562
 30
0.000000
  70
    32
  0
VERTEX
  8
VISIBLE_NARROW__ISO_
  5
CA6
 10
26.6362
 20
-3.30211
 30
0.000000
  70
    32
  0
VERTEX
  8
VISIBLE_NARROW__ISO_
  5
CA7
 10
26.6383
 20
-3.29859
 30
0.000000
  70
    32
  0
VERTEX
  8
VISIBLE_NARROW__ISO_
  5
CA8
 10
26.6404
 20
-3.29507
 30
0.000000
  70
    32
  0
VERTEX
  8
VISIBLE_NARROW__ISO_
  5
CA9
 10
26.6424
 20
-3.29153
 30
0.000000
  70
    32
  0
VERTEX
  8
VISIBLE_NARROW__ISO_
  5
CAA
 10
26.6445
 20
-3.28799
 30
0.000000
  70
    32
  0
VERTEX
  8
VISIBLE_NARROW__ISO_
  5
CAB
 10
26.6466
 20
-3.28445
 30
0.000000
  70
    32
  0
VERTEX
  8
VISIBLE_NARROW__ISO_
  5
CAC
 10
26.6486
 20
-3.28090
 30
0.000000
  70
    32
  0
VERTEX
  8
VISIBLE_NARROW__ISO_
  5
CAD
 10
26.6507
 20
-3.27734
 30
0.000000
  70
    32
  0
VERTEX
  8
VISIBLE_NARROW__ISO_
  5
CAE
 10
26.6527
 20
-3.27378
 30
0.000000
  70
    32
  0
VERTEX
  8
VISIBLE_NARROW__ISO_
  5
CAF
 10
26.6547
 20
-3.27021
 30
0.000000
  70
    32
  0
VERTEX
  8
VISIBLE_NARROW__ISO_
  5
CB0
 10
26.6567
 20
-3.26663
 30
0.000000
  70
    32
  0
VERTEX
  8
VISIBLE_NARROW__ISO_
  5
CB1
 10
26.6587
 20
-3.26305
 30
0.000000
  70
    32
  0
VERTEX
  8
VISIBLE_NARROW__ISO_
  5
CB2
 10
26.6607
 20
-3.25946
 30
0.000000
  70
    32
  0
VERTEX
  8
VISIBLE_NARROW__ISO_
  5
CB3
 10
26.6627
 20
-3.25586
 30
0.000000
  70
    32
  0
VERTEX
  8
VISIBLE_NARROW__ISO_
  5
CB4
 10
26.6646
 20
-3.25226
 30
0.000000
  70
    32
  0
VERTEX
  8
VISIBLE_NARROW__ISO_
  5
CB5
 10
26.6666
 20
-3.24866
 30
0.000000
  70
    32
  0
VERTEX
  8
VISIBLE_NARROW__ISO_
  5
CB6
 10
26.6685
 20
-3.24504
 30
0.000000
  70
    32
  0
VERTEX
  8
VISIBLE_NARROW__ISO_
  5
CB7
 10
26.6705
 20
-3.24142
 30
0.000000
  70
    32
  0
VERTEX
  8
VISIBLE_NARROW__ISO_
  5
CB8
 10
26.6724
 20
-3.23780
 30
0.000000
  70
    32
  0
VERTEX
  8
VISIBLE_NARROW__ISO_
  5
CB9
 10
26.6743
 20
-3.23417
 30
0.000000
  70
    32
  0
VERTEX
  8
VISIBLE_NARROW__ISO_
  5
CBA
 10
26.6762
 20
-3.23053
 30
0.000000
  70
    32
  0
VERTEX
  8
VISIBLE_NARROW__ISO_
  5
CBB
 10
26.6781
 20
-3.22689
 30
0.000000
  70
    32
  0
VERTEX
  8
VISIBLE_NARROW__ISO_
  5
CBC
 10
26.6799
 20
-3.22324
 30
0.000000
  70
    32
  0
VERTEX
  8
VISIBLE_NARROW__ISO_
  5
CBD
 10
26.6818
 20
-3.21959
 30
0.000000
  70
    32
  0
VERTEX
  8
VISIBLE_NARROW__ISO_
  5
CBE
 10
26.6836
 20
-3.21593
 30
0.000000
  70
    32
  0
VERTEX
  8
VISIBLE_NARROW__ISO_
  5
CBF
 10
26.6855
 20
-3.21226
 30
0.000000
  70
    32
  0
VERTEX
  8
VISIBLE_NARROW__ISO_
  5
CC0
 10
26.6873
 20
-3.20859
 30
0.000000
  70
    32
  0
VERTEX
  8
VISIBLE_NARROW__ISO_
  5
CC1
 10
26.6891
 20
-3.20492
 30
0.000000
  70
    32
  0
VERTEX
  8
VISIBLE_NARROW__ISO_
  5
CC2
 10
26.6909
 20
-3.20124
 30
0.000000
  70
    32
  0
VERTEX
  8
VISIBLE_NARROW__ISO_
  5
CC3
 10
26.6927
 20
-3.19755
 30
0.000000
  70
    32
  0
VERTEX
  8
VISIBLE_NARROW__ISO_
  5
CC4
 10
26.6945
 20
-3.19386
 30
0.000000
  70
    32
  0
VERTEX
  8
VISIBLE_NARROW__ISO_
  5
CC5
 10
26.6963
 20
-3.19016
 30
0.000000
  70
    32
  0
VERTEX
  8
VISIBLE_NARROW__ISO_
  5
CC6
 10
26.6981
 20
-3.18645
 30
0.000000
  70
    32
  0
VERTEX
  8
VISIBLE_NARROW__ISO_
  5
CC7
 10
26.6998
 20
-3.18275
 30
0.000000
  70
    32
  0
VERTEX
  8
VISIBLE_NARROW__ISO_
  5
CC8
 10
26.7015
 20
-3.17903
 30
0.000000
  70
    32
  0
VERTEX
  8
VISIBLE_NARROW__ISO_
  5
CC9
 10
26.7033
 20
-3.17531
 30
0.000000
  70
    32
  0
VERTEX
  8
VISIBLE_NARROW__ISO_
  5
CCA
 10
26.7050
 20
-3.17159
 30
0.000000
  70
    32
  0
VERTEX
  8
VISIBLE_NARROW__ISO_
  5
CCB
 10
26.7067
 20
-3.16786
 30
0.000000
  70
    32
  0
VERTEX
  8
VISIBLE_NARROW__ISO_
  5
CCC
 10
26.7084
 20
-3.16412
 30
0.000000
  70
    32
  0
VERTEX
  8
VISIBLE_NARROW__ISO_
  5
CCD
 10
26.7101
 20
-3.16038
 30
0.000000
  70
    32
  0
VERTEX
  8
VISIBLE_NARROW__ISO_
  5
CCE
 10
26.7117
 20
-3.15663
 30
0.000000
  70
    32
  0
VERTEX
  8
VISIBLE_NARROW__ISO_
  5
CCF
 10
26.7134
 20
-3.15288
 30
0.000000
  70
    32
  0
VERTEX
  8
VISIBLE_NARROW__ISO_
  5
CD0
 10
26.7150
 20
-3.14913
 30
0.000000
  70
    32
  0
VERTEX
  8
VISIBLE_NARROW__ISO_
  5
CD1
 10
26.7167
 20
-3.14537
 30
0.000000
  70
    32
  0
VERTEX
  8
VISIBLE_NARROW__ISO_
  5
CD2
 10
26.7183
 20
-3.14160
 30
0.000000
  70
    32
  0
VERTEX
  8
VISIBLE_NARROW__ISO_
  5
CD3
 10
26.7199
 20
-3.13783
 30
0.000000
  70
    32
  0
VERTEX
  8
VISIBLE_NARROW__ISO_
  5
CD4
 10
26.7215
 20
-3.13406
 30
0.000000
  70
    32
  0
VERTEX
  8
VISIBLE_NARROW__ISO_
  5
CD5
 10
26.7231
 20
-3.13027
 30
0.000000
  70
    32
  0
VERTEX
  8
VISIBLE_NARROW__ISO_
  5
CD6
 10
26.7247
 20
-3.12649
 30
0.000000
  70
    32
  0
VERTEX
  8
VISIBLE_NARROW__ISO_
  5
CD7
 10
26.7262
 20
-3.12270
 30
0.000000
  70
    32
  0
VERTEX
  8
VISIBLE_NARROW__ISO_
  5
CD8
 10
26.7278
 20
-3.11890
 30
0.000000
  70
    32
  0
VERTEX
  8
VISIBLE_NARROW__ISO_
  5
CD9
 10
26.7293
 20
-3.11510
 30
0.000000
  70
    32
  0
VERTEX
  8
VISIBLE_NARROW__ISO_
  5
CDA
 10
26.7309
 20
-3.11130
 30
0.000000
  70
    32
  0
VERTEX
  8
VISIBLE_NARROW__ISO_
  5
CDB
 10
26.7324
 20
-3.10749
 30
0.000000
  70
    32
  0
VERTEX
  8
VISIBLE_NARROW__ISO_
  5
CDC
 10
26.7339
 20
-3.10368
 30
0.000000
  70
    32
  0
VERTEX
  8
VISIBLE_NARROW__ISO_
  5
CDD
 10
26.7354
 20
-3.09986
 30
0.000000
  70
    32
  0
VERTEX
  8
VISIBLE_NARROW__ISO_
  5
CDE
 10
26.7369
 20
-3.09604
 30
0.000000
  70
    32
  0
VERTEX
  8
VISIBLE_NARROW__ISO_
  5
CDF
 10
26.7383
 20
-3.09221
 30
0.000000
  70
    32
  0
VERTEX
  8
VISIBLE_NARROW__ISO_
  5
CE0
 10
26.7398
 20
-3.08838
 30
0.000000
  70
    32
  0
VERTEX
  8
VISIBLE_NARROW__ISO_
  5
CE1
 10
26.7412
 20
-3.08454
 30
0.000000
  70
    32
  0
VERTEX
  8
VISIBLE_NARROW__ISO_
  5
CE2
 10
26.7427
 20
-3.08070
 30
0.000000
  70
    32
  0
VERTEX
  8
VISIBLE_NARROW__ISO_
  5
CE3
 10
26.7441
 20
-3.07685
 30
0.000000
  70
    32
  0
VERTEX
  8
VISIBLE_NARROW__ISO_
  5
CE4
 10
26.7455
 20
-3.07300
 30
0.000000
  70
    32
  0
VERTEX
  8
VISIBLE_NARROW__ISO_
  5
CE5
 10
26.7469
 20
-3.06915
 30
0.000000
  70
    32
  0
VERTEX
  8
VISIBLE_NARROW__ISO_
  5
CE6
 10
26.7483
 20
-3.06529
 30
0.000000
  70
    32
  0
VERTEX
  8
VISIBLE_NARROW__ISO_
  5
CE7
 10
26.7497
 20
-3.06143
 30
0.000000
  70
    32
  0
VERTEX
  8
VISIBLE_NARROW__ISO_
  5
CE8
 10
26.7510
 20
-3.05756
 30
0.000000
  70
    32
  0
VERTEX
  8
VISIBLE_NARROW__ISO_
  5
CE9
 10
26.7524
 20
-3.05369
 30
0.000000
  70
    32
  0
VERTEX
  8
VISIBLE_NARROW__ISO_
  5
CEA
 10
26.7537
 20
-3.04982
 30
0.000000
  70
    32
  0
VERTEX
  8
VISIBLE_NARROW__ISO_
  5
CEB
 10
26.7551
 20
-3.04594
 30
0.000000
  70
    32
  0
VERTEX
  8
VISIBLE_NARROW__ISO_
  5
CEC
 10
26.7564
 20
-3.04205
 30
0.000000
  70
    32
  0
VERTEX
  8
VISIBLE_NARROW__ISO_
  5
CED
 10
26.7577
 20
-3.03817
 30
0.000000
  70
    32
  0
VERTEX
  8
VISIBLE_NARROW__ISO_
  5
CEE
 10
26.7590
 20
-3.03428
 30
0.000000
  70
    32
  0
VERTEX
  8
VISIBLE_NARROW__ISO_
  5
CEF
 10
26.7603
 20
-3.03038
 30
0.000000
  70
    32
  0
VERTEX
  8
VISIBLE_NARROW__ISO_
  5
CF0
 10
26.7615
 20
-3.02648
 30
0.000000
  70
    32
  0
VERTEX
  8
VISIBLE_NARROW__ISO_
  5
CF1
 10
26.7628
 20
-3.02258
 30
0.000000
  70
    32
  0
VERTEX
  8
VISIBLE_NARROW__ISO_
  5
CF2
 10
26.7640
 20
-3.01867
 30
0.000000
  70
    32
  0
VERTEX
  8
VISIBLE_NARROW__ISO_
  5
CF3
 10
26.7653
 20
-3.01476
 30
0.000000
  70
    32
  0
VERTEX
  8
VISIBLE_NARROW__ISO_
  5
CF4
 10
26.7665
 20
-3.01084
 30
0.000000
  70
    32
  0
VERTEX
  8
VISIBLE_NARROW__ISO_
  5
CF5
 10
26.7677
 20
-3.00693
 30
0.000000
  70
    32
  0
VERTEX
  8
VISIBLE_NARROW__ISO_
  5
CF6
 10
26.7689
 20
-3.00300
 30
0.000000
  70
    32
  0
VERTEX
  8
VISIBLE_NARROW__ISO_
  5
CF7
 10
26.7701
 20
-2.99908
 30
0.000000
  70
    32
  0
VERTEX
  8
VISIBLE_NARROW__ISO_
  5
CF8
 10
26.7712
 20
-2.99515
 30
0.000000
  70
    32
  0
VERTEX
  8
VISIBLE_NARROW__ISO_
  5
CF9
 10
26.7724
 20
-2.99122
 30
0.000000
  70
    32
  0
VERTEX
  8
VISIBLE_NARROW__ISO_
  5
CFA
 10
26.7735
 20
-2.98728
 30
0.000000
  70
    32
  0
VERTEX
  8
VISIBLE_NARROW__ISO_
  5
CFB
 10
26.7747
 20
-2.98334
 30
0.000000
  70
    32
  0
VERTEX
  8
VISIBLE_NARROW__ISO_
  5
CFC
 10
26.7758
 20
-2.97940
 30
0.000000
  70
    32
  0
VERTEX
  8
VISIBLE_NARROW__ISO_
  5
CFD
 10
26.7769
 20
-2.97545
 30
0.000000
  70
    32
  0
VERTEX
  8
VISIBLE_NARROW__ISO_
  5
CFE
 10
26.7780
 20
-2.97150
 30
0.000000
  70
    32
  0
VERTEX
  8
VISIBLE_NARROW__ISO_
  5
CFF
 10
26.7791
 20
-2.96755
 30
0.000000
  70
    32
  0
VERTEX
  8
VISIBLE_NARROW__ISO_
  5
D00
 10
26.7802
 20
-2.96359
 30
0.000000
  70
    32
  0
VERTEX
  8
VISIBLE_NARROW__ISO_
  5
D01
 10
26.7812
 20
-2.95963
 30
0.000000
  70
    32
  0
VERTEX
  8
VISIBLE_NARROW__ISO_
  5
D02
 10
26.7823
 20
-2.95567
 30
0.000000
  70
    32
  0
VERTEX
  8
VISIBLE_NARROW__ISO_
  5
D03
 10
26.7833
 20
-2.95170
 30
0.000000
  70
    32
  0
VERTEX
  8
VISIBLE_NARROW__ISO_
  5
D04
 10
26.7844
 20
-2.94773
 30
0.000000
  70
    32
  0
VERTEX
  8
VISIBLE_NARROW__ISO_
  5
D05
 10
26.7854
 20
-2.94376
 30
0.000000
  70
    32
  0
VERTEX
  8
VISIBLE_NARROW__ISO_
  5
D06
 10
26.7864
 20
-2.93978
 30
0.000000
  70
    32
  0
VERTEX
  8
VISIBLE_NARROW__ISO_
  5
D07
 10
26.7874
 20
-2.93580
 30
0.000000
  70
    32
  0
VERTEX
  8
VISIBLE_NARROW__ISO_
  5
D08
 10
26.7883
 20
-2.93182
 30
0.000000
  70
    32
  0
VERTEX
  8
VISIBLE_NARROW__ISO_
  5
D09
 10
26.7893
 20
-2.92783
 30
0.000000
  70
    32
  0
VERTEX
  8
VISIBLE_NARROW__ISO_
  5
D0A
 10
26.7903
 20
-2.92385
 30
0.000000
  70
    32
  0
VERTEX
  8
VISIBLE_NARROW__ISO_
  5
D0B
 10
26.7912
 20
-2.91986
 30
0.000000
  70
    32
  0
VERTEX
  8
VISIBLE_NARROW__ISO_
  5
D0C
 10
26.7921
 20
-2.91586
 30
0.000000
  70
    32
  0
VERTEX
  8
VISIBLE_NARROW__ISO_
  5
D0D
 10
26.7930
 20
-2.91186
 30
0.000000
  70
    32
  0
VERTEX
  8
VISIBLE_NARROW__ISO_
  5
D0E
 10
26.7939
 20
-2.90787
 30
0.000000
  70
    32
  0
VERTEX
  8
VISIBLE_NARROW__ISO_
  5
D0F
 10
26.7948
 20
-2.90386
 30
0.000000
  70
    32
  0
VERTEX
  8
VISIBLE_NARROW__ISO_
  5
D10
 10
26.7957
 20
-2.89986
 30
0.000000
  70
    32
  0
VERTEX
  8
VISIBLE_NARROW__ISO_
  5
D11
 10
26.7966
 20
-2.89585
 30
0.000000
  70
    32
  0
VERTEX
  8
VISIBLE_NARROW__ISO_
  5
D12
 10
26.7974
 20
-2.89184
 30
0.000000
  70
    32
  0
VERTEX
  8
VISIBLE_NARROW__ISO_
  5
D13
 10
26.7983
 20
-2.88783
 30
0.000000
  70
    32
  0
VERTEX
  8
VISIBLE_NARROW__ISO_
  5
D14
 10
26.7991
 20
-2.88381
 30
0.000000
  70
    32
  0
VERTEX
  8
VISIBLE_NARROW__ISO_
  5
D15
 10
26.7999
 20
-2.87980
 30
0.000000
  70
    32
  0
VERTEX
  8
VISIBLE_NARROW__ISO_
  5
D16
 10
26.8007
 20
-2.87577
 30
0.000000
  70
    32
  0
VERTEX
  8
VISIBLE_NARROW__ISO_
  5
D17
 10
26.8015
 20
-2.87175
 30
0.000000
  70
    32
  0
VERTEX
  8
VISIBLE_NARROW__ISO_
  5
D18
 10
26.8023
 20
-2.86773
 30
0.000000
  70
    32
  0
VERTEX
  8
VISIBLE_NARROW__ISO_
  5
D19
 10
26.8031
 20
-2.86370
 30
0.000000
  70
    32
  0
VERTEX
  8
VISIBLE_NARROW__ISO_
  5
D1A
 10
26.8038
 20
-2.85967
 30
0.000000
  70
    32
  0
VERTEX
  8
VISIBLE_NARROW__ISO_
  5
D1B
 10
26.8046
 20
-2.85564
 30
0.000000
  70
    32
  0
VERTEX
  8
VISIBLE_NARROW__ISO_
  5
D1C
 10
26.8053
 20
-2.85160
 30
0.000000
  70
    32
  0
VERTEX
  8
VISIBLE_NARROW__ISO_
  5
D1D
 10
26.8060
 20
-2.84757
 30
0.000000
  70
    32
  0
VERTEX
  8
VISIBLE_NARROW__ISO_
  5
D1E
 10
26.8067
 20
-2.84353
 30
0.000000
  70
    32
  0
VERTEX
  8
VISIBLE_NARROW__ISO_
  5
D1F
 10
26.8074
 20
-2.83949
 30
0.000000
  70
    32
  0
VERTEX
  8
VISIBLE_NARROW__ISO_
  5
D20
 10
26.8081
 20
-2.83544
 30
0.000000
  70
    32
  0
VERTEX
  8
VISIBLE_NARROW__ISO_
  5
D21
 10
26.8088
 20
-2.83140
 30
0.000000
  70
    32
  0
VERTEX
  8
VISIBLE_NARROW__ISO_
  5
D22
 10
26.8094
 20
-2.82735
 30
0.000000
  70
    32
  0
VERTEX
  8
VISIBLE_NARROW__ISO_
  5
D23
 10
26.8101
 20
-2.82330
 30
0.000000
  70
    32
  0
VERTEX
  8
VISIBLE_NARROW__ISO_
  5
D24
 10
26.8107
 20
-2.81925
 30
0.000000
  70
    32
  0
VERTEX
  8
VISIBLE_NARROW__ISO_
  5
D25
 10
26.8113
 20
-2.81520
 30
0.000000
  70
    32
  0
VERTEX
  8
VISIBLE_NARROW__ISO_
  5
D26
 10
26.8119
 20
-2.81114
 30
0.000000
  70
    32
  0
VERTEX
  8
VISIBLE_NARROW__ISO_
  5
D27
 10
26.8125
 20
-2.80709
 30
0.000000
  70
    32
  0
VERTEX
  8
VISIBLE_NARROW__ISO_
  5
D28
 10
26.8131
 20
-2.80303
 30
0.000000
  70
    32
  0
VERTEX
  8
VISIBLE_NARROW__ISO_
  5
D29
 10
26.8137
 20
-2.79897
 30
0.000000
  70
    32
  0
VERTEX
  8
VISIBLE_NARROW__ISO_
  5
D2A
 10
26.8142
 20
-2.79491
 30
0.000000
  70
    32
  0
VERTEX
  8
VISIBLE_NARROW__ISO_
  5
D2B
 10
26.8148
 20
-2.79084
 30
0.000000
  70
    32
  0
VERTEX
  8
VISIBLE_NARROW__ISO_
  5
D2C
 10
26.8153
 20
-2.78678
 30
0.000000
  70
    32
  0
VERTEX
  8
VISIBLE_NARROW__ISO_
  5
D2D
 10
26.8158
 20
-2.78271
 30
0.000000
  70
    32
  0
VERTEX
  8
VISIBLE_NARROW__ISO_
  5
D2E
 10
26.8163
 20
-2.77864
 30
0.000000
  70
    32
  0
VERTEX
  8
VISIBLE_NARROW__ISO_
  5
D2F
 10
26.8168
 20
-2.77457
 30
0.000000
  70
    32
  0
VERTEX
  8
VISIBLE_NARROW__ISO_
  5
D30
 10
26.8173
 20
-2.77050
 30
0.000000
  70
    32
  0
VERTEX
  8
VISIBLE_NARROW__ISO_
  5
D31
 10
26.8178
 20
-2.76643
 30
0.000000
  70
    32
  0
VERTEX
  8
VISIBLE_NARROW__ISO_
  5
D32
 10
26.8182
 20
-2.76236
 30
0.000000
  70
    32
  0
VERTEX
  8
VISIBLE_NARROW__ISO_
  5
D33
 10
26.8187
 20
-2.75828
 30
0.000000
  70
    32
  0
VERTEX
  8
VISIBLE_NARROW__ISO_
  5
D34
 10
26.8191
 20
-2.75420
 30
0.000000
  70
    32
  0
VERTEX
  8
VISIBLE_NARROW__ISO_
  5
D35
 10
26.8195
 20
-2.75012
 30
0.000000
  70
    32
  0
VERTEX
  8
VISIBLE_NARROW__ISO_
  5
D36
 10
26.8200
 20
-2.74605
 30
0.000000
  70
    32
  0
VERTEX
  8
VISIBLE_NARROW__ISO_
  5
D37
 10
26.8203
 20
-2.74196
 30
0.000000
  70
    32
  0
VERTEX
  8
VISIBLE_NARROW__ISO_
  5
D38
 10
26.8207
 20
-2.73788
 30
0.000000
  70
    32
  0
VERTEX
  8
VISIBLE_NARROW__ISO_
  5
D39
 10
26.8211
 20
-2.73380
 30
0.000000
  70
    32
  0
VERTEX
  8
VISIBLE_NARROW__ISO_
  5
D3A
 10
26.8215
 20
-2.72972
 30
0.000000
  70
    32
  0
VERTEX
  8
VISIBLE_NARROW__ISO_
  5
D3B
 10
26.8218
 20
-2.72563
 30
0.000000
  70
    32
  0
VERTEX
  8
VISIBLE_NARROW__ISO_
  5
D3C
 10
26.8221
 20
-2.72154
 30
0.000000
  70
    32
  0
VERTEX
  8
VISIBLE_NARROW__ISO_
  5
D3D
 10
26.8225
 20
-2.71746
 30
0.000000
  70
    32
  0
VERTEX
  8
VISIBLE_NARROW__ISO_
  5
D3E
 10
26.8228
 20
-2.71337
 30
0.000000
  70
    32
  0
VERTEX
  8
VISIBLE_NARROW__ISO_
  5
D3F
 10
26.8231
 20
-2.70928
 30
0.000000
  70
    32
  0
VERTEX
  8
VISIBLE_NARROW__ISO_
  5
D40
 10
26.8233
 20
-2.70519
 30
0.000000
  70
    32
  0
VERTEX
  8
VISIBLE_NARROW__ISO_
  5
D41
 10
26.8236
 20
-2.70110
 30
0.000000
  70
    32
  0
VERTEX
  8
VISIBLE_NARROW__ISO_
  5
D42
 10
26.8239
 20
-2.69701
 30
0.000000
  70
    32
  0
VERTEX
  8
VISIBLE_NARROW__ISO_
  5
D43
 10
26.8241
 20
-2.69291
 30
0.000000
  70
    32
  0
VERTEX
  8
VISIBLE_NARROW__ISO_
  5
D44
 10
26.8243
 20
-2.68882
 30
0.000000
  70
    32
  0
VERTEX
  8
VISIBLE_NARROW__ISO_
  5
D45
 10
26.8246
 20
-2.68473
 30
0.000000
  70
    32
  0
VERTEX
  8
VISIBLE_NARROW__ISO_
  5
D46
 10
26.8248
 20
-2.68063
 30
0.000000
  70
    32
  0
VERTEX
  8
VISIBLE_NARROW__ISO_
  5
D47
 10
26.8250
 20
-2.67654
 30
0.000000
  70
    32
  0
VERTEX
  8
VISIBLE_NARROW__ISO_
  5
D48
 10
26.8251
 20
-2.67244
 30
0.000000
  70
    32
  0
VERTEX
  8
VISIBLE_NARROW__ISO_
  5
D49
 10
26.8253
 20
-2.66835
 30
0.000000
  70
    32
  0
VERTEX
  8
VISIBLE_NARROW__ISO_
  5
D4A
 10
26.8255
 20
-2.66425
 30
0.000000
  70
    32
  0
VERTEX
  8
VISIBLE_NARROW__ISO_
  5
D4B
 10
26.8256
 20
-2.66015
 30
0.000000
  70
    32
  0
VERTEX
  8
VISIBLE_NARROW__ISO_
  5
D4C
 10
26.8257
 20
-2.65605
 30
0.000000
  70
    32
  0
VERTEX
  8
VISIBLE_NARROW__ISO_
  5
D4D
 10
26.8259
 20
-2.65196
 30
0.000000
  70
    32
  0
VERTEX
  8
VISIBLE_NARROW__ISO_
  5
D4E
 10
26.8260
 20
-2.64786
 30
0.000000
  70
    32
  0
VERTEX
  8
VISIBLE_NARROW__ISO_
  5
D4F
 10
26.8261
 20
-2.64376
 30
0.000000
  70
    32
  0
VERTEX
  8
VISIBLE_NARROW__ISO_
  5
D50
 10
26.8261
 20
-2.63966
 30
0.000000
  70
    32
  0
VERTEX
  8
VISIBLE_NARROW__ISO_
  5
D51
 10
26.8262
 20
-2.63556
 30
0.000000
  70
    32
  0
VERTEX
  8
VISIBLE_NARROW__ISO_
  5
D52
 10
26.8263
 20
-2.63146
 30
0.000000
  70
    32
  0
VERTEX
  8
VISIBLE_NARROW__ISO_
  5
D53
 10
26.8263
 20
-2.62736
 30
0.000000
  70
    32
  0
VERTEX
  8
VISIBLE_NARROW__ISO_
  5
D54
 10
26.8263
 20
-2.62326
 30
0.000000
  70
    32
  0
VERTEX
  8
VISIBLE_NARROW__ISO_
  5
D55
 10
26.8264
 20
-2.61916
 30
0.000000
  70
    32
  0
VERTEX
  8
VISIBLE_NARROW__ISO_
  5
D56
 10
26.8264
 20
-2.61507
 30
0.000000
  70
    32
  0
SEQEND
  8
VISIBLE_NARROW__ISO_
  5
D57
  0
LINE
  5
CD
 67
     1
  8
VISIBLE_NARROW__ISO_
 10
26.8263609384664008
 20
12.3389552197449106
 30
0.0
 11
26.8263609384664008
 21
-2.6152295342095382
 31
0.0
  0
ARC
  5
CE
 67
     1
  8
SKETCH_GEOMETRY__ISO_
 10
-1.863718393751064
 20
-2.6159827465241721
 30
0.0
 40
1.332813711578245
 50
179.9450642026421008
 51
270.0549357973708879
  0
ENDSEC
  0
EOF
